Cifras e Tablaturas
Deep Purple

Deep Purple

Perfect Strangers Tablatura Verificada

Ano: 1984
Album : The Very Best of Deep Purple
Compositor : (Ritchie Blackmore / Ian Gillan / Roger Glover)

Cifras Cancelar Versão de Impressão
cifras

Deep Purple - Perfect Strangers

fixar na tela  
Exibindo: vídeo-aula ver clipes redimensionar
  


 Introdução 


 e|--------------------------------------------------------| 
 B|-------------------------------------------------5(HA)Al| 
 G|---------7(HA)Al-------5(HA)Al-------7(HA)Al------------| 
 D|---5/7-7-----------------------5/7-7--------------------| 
 A|-\-3/5-5---------3/5-5---------3/5-5--------3/5-5-------| 
 E|-\---------------1/3-3----------------------1/3-3-------| 



 Verso 1 



 e|--------------------------------------------------------| 
 B|-------------------------------------6/8--8-------------| 
 G|-------------------------------------5/7--7---8--6p5----| 
 D|---5/7-7---5/7----------5/7-7---5/7--3/5--5----------7--| 
 A|-\-3/5-5---3/5--3/5-5---3/5-5---3/5---------------------| 
 E|-\--------------1/3-3-----------------------------------| 



 e|--------------------------------------------------------| 
 B|-8/10-10------------------------------------------------| 
 G|-7/9--9---------5---------------------1-----------------| 
 D|-5/7--7---5--7--5--7--5--7---7\6--2h3---2h3-2---5-------| 
 A|----------5--7-----7--5--7----------------------5-------| 
 E|--------------------------------------------------------| 



 e|--------------------------------------------------------| 
 B|--------------------------------------------------------| 
 G|-------5--------------------7(HA)Al----------5(HA)Al----| 
 D|-5--7--5--7--5--7----5/7-7------------------------------| 
 A|-5--7-----7--5--7----3/5-5-----------3/5-5--------------| 
 E|-------------------------------------1/3-3--------------| 




 Final do verso 2 



 e|--------------------------------------------------------| 
 B|--------------------------------------------------------| 
 G|------------5-------------------------------------------| 
 D|-5----5--7--5--7--5--7----------------------------------| 
 A|-5----5--7-----7--5--7----0h2p0-(12x)-------------------| 
 E|--------------------------------------------------------| 




 Refrão 



 e|------------------------------------15-12---------------| 
 B|-------6--8-8---------6-----------6------13-------------| 
 G|-----7--------5-----7-----------7----------14-14p12--12\| 
 D|---7--------------7------5----7--------------------14---| 
 A|-8--------------5-----------5---------------------------| 
 E|------------------------3-------------------------------| 



 e|--------------------------------------------------------| 
 B|--------------------------------------------------------| 
 G|--------------------------------------------------------| 
 D|--------5----------5----------5----------5--------------| 
 A|--------------------------------------------------------| 
 E|---3-3-----XX-3-3-----XX-3-3-----XX-3-3-----X-----------| 




 e|--6b8--6-5p3---3----------------------------------------| 
 B|-------------6---6p3---3--------------------------------| 
 G|---------------------6---6\5p3-5-3----------------------| 
 D|-----------------------------------5(HA)----------------| 
 A|--------------------------------------------------------| 
 E|--------------------------------------------------------| 



 Inderlúdio 1 



 e|--------------------------------------------------------| 
 B|--------------------------------------------------------| 
 G|--------------------------------------------------------| 
 D|---7-7-7---8-8-8-5-5-5---7-7-7-3-3-3-7-7-7-5-5-5--5-----| 
 A|-0-------0-------------0--------------------------------| 
 E|--------------------------------------------------------| 



 e|--------------------------------------------------------| 
 B|--------------------------------------------------------| 
 G|--------------------------------------------------------| 
 D|---7-7-7---8-8-8-5-5-5---7-7-7-3-3-3-7-7-7-5-5-5--5-----| 
 A|-0-------0-------------0--------------------------------| 
 E|--------------------------------------------------------| 



 e|--------------------------------------------------------| 
 B|--------------------------------------------------------| 
 G|--------------------------------------------------------| 
 D|---7-7-7---8-8-8-5-5-5---7-7-7-3-3-3-7-7-7-5-5-5--5-----| 
 A|-0-------0-------------0--------------------------------| 
 E|--------------------------------------------------------| 



 e|--------------------------------------------------------| 
 B|--------------------------------------------------------| 
 G|--------------------------------------------------------| 
 D|---7-7-7---8-8-8-5-5-5---7-7-7-3-3-3-7-7-7-5-5-5-3-3-3--| 
 A|-0-------0-------------0--------------------------------| 
 E|--------------------------------------------------------| 



 e|--------------------------------------------------------| 
 B|--------------------------------------------------------| 
 G|-----------------------------7(HA)Al-------5(HA)Al------| 
 D|-2-2-2----------------5/7-7-----------------------------| 
 A|-------5-5-5-3-3-3-1--3/5-5----------3/5-5--------------| 
 E|-------------------------------------1/3-3--------------| 



 Verso 3 




 e|--------------------------------------------------------| 
 B|--------------------------------------------------------| 
 G|---------------------7(HA)-----------5(HA)--------------| 
 D|-5/7-7---5/7-----------------7(HA)-----------5(HA)al----| 
 A|-3/5-5---3/5--3/5-5-------------------------------------| 
 E|--------------1/3-3-------------------------------------| 



 e|--------------------------------------------------------| 
 B|--------------------------------------------------------| 
 G|--------------------------------------------------------| 
 D|-5/7----------------------------------------------------| 
 A|-3/5--7-7-7-7/8-8-8-8/10-10-10\8-8-8-8\7-7-7\-5-5-5-----| 
 E|--------------------------------------------------------| 



 e|--------------------------------------------------------| 
 B|-------------------------------------6/8--8-------------| 
 G|-------------------------------------5/7--7---8--6p5----| 
 D|---5/7-7---5/7----------5/7-7---5/7--3/5--5----------7--| 
 A|-\-3/5-5---3/5--3/5-5---3/5-5---3/5---------------------| 
 E|-\--------------1/3-3-----------------------------------| 



 e|--------------------------------------4-----------------| 
 B|-8/10-10--------------------10\9--5h6---5h6p5-----------| 
 G|-7/9--9---------5---------------------------------------| 
 D|-5/7--7---5--7--5--7--5--7---------------------5--------| 
 A|----------5--7-----7--5--7---------------------5--------| 
 E|--------------------------------------------------------| 



 e|--------------------------------------------------------| 
 B|--------------------------------------------------------| 
 G|-------5-----------6h7/9--9/10--9-----------------------| 
 D|-5--7--5--7--5--7---------------------------------------| 
 A|-5--7-----7--5--7---------------------------------------| 
 E|--------------------------------------------------------| 



 Final do Refrão 2  


 e|--------------------------------------------------------| 
 B|-------------------------------------5(HA)Al------------| 
 G|---5b7--7r5p3------3-----------------5(HA)Al------------| 
 D|---------------5-5---5p3--------------------------------| 
 A|-------------------------5\3--1----------------\--------| 
 E|---------------------------------3-------------\--------| 




 Inderlúdio 2 (1ª Parte) 




 e|--------------------------------------------------------| 
 B|--------------------------------------------------------| 
 G|--------------------------------------------------------| 
 D|--------------------------------------------------------| 
 A|---7-7-7---8-8-8-5-5-5---7-7-7-3-3-3-7-7-7-5-5-5--5-----| 
 E|-0-------0-------------0--------------------------------| 
  


 e|--------------------------------------------------------| 
 B|--------------------------------------------------------| 
 G|--------------------------------------------------------| 
 D|--------------------------------------------------------| 
 A|---7-7-7---8-8-8-5-5-5---7-7-7-3-3-3-7-7-7-5-5-5--5-----| 
 E|-0-------0-------------0--------------------------------| 
  


 e|--------------------------------------------------------| 
 B|--------------------------------------------------------| 
 G|--------------------------------------------------------| 
 D|--------------------------------------------------------| 
 A|---7-7-7---8-8-8-5-5-5---7-7-7-3-3-3-7-7-7-5-5-5--5-----| 
 E|-0-------0-------------0--------------------------------| 
  


 e|--------------------------------------------------------| 
 B|--------------------------------------------------------| 
 G|--------------------------------------------------------| 
 D|--------------------------------------------------------| 
 A|---7-7-7---8-8-8-5-5-5---7-7-7-3-3-3-7-7-7-5-5-5--5-----| 
 E|-0-------0-------------0--------------------------------| 
  


 e|--------------------------------------------------------| 
 B|--------------------------------------------------------| 
 G|--------------------------------------------------------| 
 D|--------------------------------------------------------| 
 A|---7-7-7---8-8-8-5-5-5---7-7-7-3-3-3-7-7-7-5-5-5-3-3-3--| 
 E|-0-------0-------------0--------------------------------| 
  


 e|--------------------------------------------------------| 
 B|--------------------------------------------------------| 
 G|--------------------------------------------------------| 
 D|--------------------------------------------------------| 
 A|-2-2-2--------------------------------------------------| 
 E|-------5-5-5-3-3-3-1b-0---------------------------------| 




 e|--------------------------------------------------------| 
 B|--------------------------------------------------------| 
 G|--------------------------------------------------------| 
 D|--------------------------------------------------------| 
 A|---7-7-7---8-8-8-5-5-5---7-7-7-3-3-3-7-7-7-5-5-5--5-(8x)| 
 E|-0-------0-------------0--------------------------------| 
  



 Inderlúdio 2 (2ª Parte) e final 




 e|--------------------------------------------------------| 
 B|--------------------------------------------------------| 
 G|--------------------------------------------------------| 
 D|---9---10--7--------------------------------------------| 
 A|---7---8---5-----7-7-7-3-3-3-7-7-7-5-5-5--5-------------| 
 E|---------------0----------------------------------------| 



 e|--------------------------------------------------------| 
 B|--------------------------------------------------------| 
 G|--------------------------------------------------------| 
 D|---9---10--7--------------------------------------------| 
 A|---7---8---5-----7-7-7-3-3-3-7-7-7-5-5-5--5-------------| 
 E|--------------0-----------------------------------------| 



 e|--------------------------------------------------------| 
 B|--------------------------------------------------------| 
 G|--------------------------------------------------------| 
 D|---9---10--7--------------------------------------------| 
 A|---7---8---5-----7-7-7-3-3-3-7-7-7-5-5-5--5-------------| 
 E|---------------0----------------------------------------| 



 e|--------------------------------------------------------| 
 B|--------------------------------------------------------| 
 G|--------------------------------------------------------| 
 D|---9---10--7--------------------------------------------| 
 A|---7---8---5-----7-7-7-3-3-3-7-7-7-5-5-5--5-------------| 
 E|---------------0----------------------------------------| 


  

 e|---------5-4h5p4----------------------------------------| 
 B|-----------------6-5------------------------------------| 
 G|--------4------------7-5-4-5/9-7-5-4-5/7-5-4-2-4/5-4-2-1| 
 D|----6-7-------------------------------------------------| 
 A|7-8-----------------------------------------------------| 
 E|--------------------------------------------------------| 


Dm                             G 
Can you remember remember my name 
                        Dm 
As I flow through your life 
                      G 
A thousand oceans I have flown 
Am 
And cold spirits of ice 

All my life 
Am 
I am the echo of your past 

Dm                                       G 
I am returning the echo of a point in time 
                 Dm 
Distant faces shine 
                           G 
A thousand warriors I have known 
Am 
And laughing as the spirits appear 
Am 
All your life 

Shadows of another day 

F  C                           Dm 
   And if you hear me talking on the wind 
               G 
You've got to understand 
           Dm 
We must remain 
           C 
Perfect Strangers 

Am 
I know I must remain inside this silent well of sorrow 
Dm                                    G 
A strand of silver hanging through the sky 
                        Dm 
Touching more than you see 
                          G 
The voice of ages in your mind 
Am 
Is aching with the dead of the night 
Am 
Precious life (your tears are lost in falling rain) 
F C                           Dm 
  And if you hear me talking on the wind 
                G 
You've got to understand 
           Dm               C 
We must remain / Perfect Strangers 



  

cifra enviadacorrigido por:Acelot
enviado poranônimo
top 5 | deep purple
top rock'n roll
Outras músicas do artista letras do(a) Deep Purple
Top cifras »Top artistas »
Petaxxon Comunicação Online
Cifras.com.br - Melhor e mais completo site de cifras e tablaturas do Brasil
Mais de 1 milhão de acordes de músicas cadastradas desde 2003
As informações contidas no nosso site são colaborações de seus usuários e podem conter erros, sendo assim, não nos responsabilizamos sobre nenhuma destas.
close
menos
mais
close
Cor dos acordes:

Cor da letra:

 

save
close
close
 
redimensionar