Cifras e Tablaturas
Deerhunter

Deerhunter

Earthquake

Cifras Cancelar Versão de Impressão

Deerhunter - Earthquake

Tom:

  			
Verso 

E|-----------------------7-----------|  
B|-------------------9-------9-------| 
G|---------------9---------------9---|  
D|-----------7-----------------------|   X4 
A|-------7---------------------------| 
E|---5-------------------------------|  

E|----------------------------7-----------| 
B|------------------------8-------8-------| 
G|-------------------7----------------7---| 
D|-------------10-------------------------|  X4 
A|-------10-------------------------------| 
E|---8------------------------------------| 

Coro 
         
Guitarra 1 Toque rápido para dar o efeito 
E|---11~~~~--------------------------------| 
B|---12~~~~--------------------------------| 
G|---13~~~~--------------------------------| 
D|-----------------------------------------| X4 
A|-----------------------------------------| 
E|-----------------------------------------| 

        Guitarra 2                                                               
E|------------------------11---------------| 
B|--------------------12------12-----------| 
G|--------------(13)--------------13-------| 
D|--------(14)------------------------14---|  X4 
A|--(14)-----------------------------------| 
E|-----------------------------------------| 
         
        Guitarra 1 
E|----8~~-------------------------------| 
B|----9~~-------------------------------| 
G|---10~~-------------------------------| 
D|--------------------------------------| X4 
A|--------------------------------------| 
E|--------------------------------------| 

        Guitarra 2                                               
E|-----------------------8--------------| 
B|--------------------9-----9-----------| 
G|--------------(10)-----------10-------| 
D|--------(11)---------------------11---| X4 
A|--(11)--------------------------------| 
E|--------------------------------------| 

Final 

E|-------------------| 
B|---9-------8-------| 
G|---x-------x-------| 
D|---7-------10------| 
A|---7-------10------| 
E|---5-------8-------| 
    	
fixar
fixar inscrever-se

enviado porenviado por: abelamin
cifra enviadaCorrigida por: sem correções
logo top cifrasComente
ico música do artistaMúsicas deste artista
ico curtiuCurtiu?
ico destaqueDestaque
Petaxxon Comunicação Online

Cifras.com.br - Melhor e mais completo site de cifras e tablaturas do Brasil Mais de 1 milhão de acordes de músicas cadastradas desde 2003
As informações contidas no nosso site são colaborações de seus usuários e podem conter erros, sendo assim, não nos responsabilizamos sobre nenhuma destas.

close
menos
mais
close
Cor dos acordes:

Cor da letra:

close
Alinhar acordes a direita Alinhar acordes a esquerda Alinhar acordes em baixo Alinhar acordes no topo
close
  Mostrar todos os acordes Esconder acordes muito fáceis Esconder acordes fáceis Esconder acordes intermediários
redimensionar
glossário