Cifras e Tablaturas
Deftones

Deftones

Xenon

Cifras Cancelar Versão de Impressão
cifras

Deftones - Xenon

fixar na tela  
Exibindo: vídeo-aula ver clipes redimensionar

Tom:

  
Intro/Verse 

e|----------------6----------------6----| 
B|------------5----------------5-----5--| 
G|--------------5----------------5------| 
D|--------------------------------------| 
A|--3-3-3-3-3--------3-3-3-3-3----------| 6x 
E|--3-3-3-3-3--------3-3-3-3-3----------| 
B|--1-1-1-1-1--------1-1-1-1-1----------| 
E|--------------------------------------| 


Chorus 1 

e|----------------------------------------------------------------------| 
B|----------------------------------------------------------------------| 
G|-----------------------------------8/9-9-9-9-9-9-9-9-9-9-9-9-9-9-9-9--| 
D|--8-8-8-8-8-8-8-8-8-8-8-8-8-8-8-8-------------------------------------| 
A|-----------------------------------6/7-7-7-7-7-7-7-7-7-7-7-7-7-7-7-7--|  
E|--6-6-6-6-6-6-6-6-6-6-6-6-6-6-6-6-------------------------------------| 
B|----------------------------------------------------------------------| 
E|----------------------------------------------------------------------| 

e|----------------------------------------------------------------------| 
B|----------------------------------------------------------------------| 
G|-----------------------------------15-15-15\14-14-14-14-14-14-14-14---| 
D|--8-8-8-8-8-8-8-8-8-8-8-8-8-8-8-8-------------------------------------| 
A|-----------------------------------13-13-13\12-12-12-12-12-12-12-12---|  
E|--6-6-6-6-6-6-6-6-6-6-6-6-6-6-6-6-------------------------------------| 
B|----------------------------------------------------------------------| 
E|----------------------------------------------------------------------| 

e|---------------------------------------------------------------------------| 
B|---------------------------------------------------------------------------| 
G|--7-7-7-7-7-7-7-7-7-7-7-7-7-7-7-7-9-9-9-9-9-9-9-9-12-12-12-12-12-12-12-12--| 
D|---------------------------------------------------------------------------| 
A|--5-5-5-5-5-5-5-5-5-5-5-5-5-5-5-5-7-7-7-7-7-7-7-7-10-10-10-10-10-10-10-10--| 
E|---------------------------------------------------------------------------| 
B|---------------------------------------------------------------------------| 
E|---------------------------------------------------------------------------| 

e|-----------------------------------| 
B|-----------------------------------| 
G|--7-7-7-7-7-7-7-7-7-7-7-7-7-7-7-7--| 
D|-----------------------------------| 
A|--5-5-5-5-5-5-5-5-5-5-5-5-5-5-5-5--|  
E|-----------------------------------| 
B|-----------------------------------| 
E|-----------------------------------| 


Verse 

e|----------------6----------------6----| 
B|------------5----------------5-----5--| 
G|--------------5----------------5------| 
D|--------------------------------------| 
A|--3-3-3-3-3--------3-3-3-3-3----------| 4x 
E|--3-3-3-3-3--------3-3-3-3-3----------| 
B|--1-1-1-1-1--------1-1-1-1-1----------| 
E|--------------------------------------| 


Chorus 2  

e|--------------------------------------------------------------------------------------| 
B|--------------------------------------------------------------------------------------| 
G|--15-15-15-15-15-15-15-15-15-15-15-15-15-15-15-15--8/9-9-9-9-9-9-9-9-9-9-9-9-9-9-9-9--| 
D|--------------------------------------------------------------------------------------| 
A|--13-13-13-13-13-13-13-13-13-13-13-13-13-13-13-13--6/7-7-7-7-7-7-7-7-7-7-7-7-7-7-7-7--|  
E|--------------------------------------------------------------------------------------| 
B|--------------------------------------------------------------------------------------| 
E|--------------------------------------------------------------------------------------| 

e|---------------------------------------------------------------------------------------------------| 
B|---------------------------------------------------------------------------------------------------| 
G|--15-15-15-15-15-15-15-15-15-15-15-15-15-15-15-15\14-14-14-14-14-14-14-14-14-14-14-14-14-14-14-14--| 
D|---------------------------------------------------------------------------------------------------| 
A|--13-13-13-13-13-13-13-13-13-13-13-13-13-13-13-13\12-12-12-12-12-12-12-12-12-12-12-12-12-12-12-12--|  
E|---------------------------------------------------------------------------------------------------| 
B|---------------------------------------------------------------------------------------------------| 
E|---------------------------------------------------------------------------------------------------| 

e|---------------------------------------------------------------------------| 
B|---------------------------------------------------------------------------| 
G|--7-7-7-7-7-7-7-7-7-7-7-7-7-7-7-7-9-9-9-9-9-9-9-9-12-12-12-12-12-12-12-12--| 
D|---------------------------------------------------------------------------| 
A|--5-5-5-5-5-5-5-5-5-5-5-5-5-5-5-5-7-7-7-7-7-7-7-7-10-10-10-10-10-10-10-10--|  
E|---------------------------------------------------------------------------| 
B|---------------------------------------------------------------------------| 
E|---------------------------------------------------------------------------| 

e|-------------------------------------------------------------------| 
B|-------------------------------------------------------------------| 
G|--7-7-7-7-7-7-7-7-7-7-7-7-7-7-7-7----------------------------------| 
D|-------------------------------------------------------------------| 
A|--5-5-5-5-5-5-5-5-5-5-5-5-5-5-5-5-3-3-3-3-3-3-3-3-3-3-3-3-3-3-3-3--|  
E|----------------------------------3-3-3-3-3-3-3-3-3-3-3-3-3-3-3-3--| 
B|----------------------------------1-1-1-1-1-1-1-1-1-1-1-1-1-1-1-1--| 
E|-------------------------------------------------------------------| 

e|---------------------------------------------------------------------------| 
B|---------------------------------------------------------------------------| 
G|--7-7-7-7-7-7-7-7-7-7-7-7-7-7-7-7-9-9-9-9-9-9-9-9-12-12-12-12-15-15-15-15--| 
D|---------------------------------------------------------------------------| 
A|--5-5-5-5-5-5-5-5-5-5-5-5-5-5-5-5-7-7-7-7-7-7-7-7-10-10-10-10-13-13-13-13--|  
E|---------------------------------------------------------------------------| 
B|---------------------------------------------------------------------------| 
E|---------------------------------------------------------------------------| 

e|-------------------------------| 
B|-------------------------------| 
G|--7-7-7-7-7-7-7-7--------------| 
D|-------------------------------| 
A|--5-5-5-5-5-5-5-5--3--3--3--3--|  
E|-------------------3--3--3--3--| 
B|-------------------1--1--1--1--| 
E|-------------------------------| 


Outro 

e|-----------------------------------------------------------| 
B|-----------------------------------------------------------| 
G|--7-7-7-7-7-7-7-7-7-7-7-7-7-7-7-7-7-7-7-7-7-7-7-7-7--------| 
D|-----------------------------------------------------------| 
A|--5-5-5-5-5-5-5-5-5-5-5-5-5-5-5-5-5-5-5-5-5-5-5-5-5--3-----|  
E|-----------------------------------------------------3-----| 
B|-----------------------------------------------------1-----| 
E|-----------------------------------------------------------| 


****************** 
| /   slide up 
| \   slide down 
****************** 
  

top 5 | deftones
top
Outras músicas do artista letras do(a) Deftones
Top cifras »Top artistas »
Petaxxon Comunicação Online
Cifras.com.br - Melhor e mais completo site de cifras e tablaturas do Brasil
Mais de 1 milhão de acordes de músicas cadastradas desde 2003
As informações contidas no nosso site são colaborações de seus usuários e podem conter erros, sendo assim, não nos responsabilizamos sobre nenhuma destas.
close
menos
mais
close
Cor dos acordes:

Cor da letra:

 

save
close
close
 
redimensionar