Cifras e Tablaturas
Deluxx Folk Implosion

Deluxx Folk Implosion

Daddy Never Understood

Cifras Cancelar Versão de Impressão
cifras

Deluxx Folk Implosion - Daddy Never Understood

fixar na tela  
Exibindo: vídeo-aula ver clipes redimensionar
  
Chorus 

            A5 
e|---------------------------------------------------------------------------| 
B|---------------------------------------------------------------------------| 
G|---------------------------------------------------------------------------| 
D|--#-#-#-#-7-7-7-7-7-7-7-7--------------------------------------------------| 4x 
A|--#-#-#-#-7-7-7-7-7-7-7-7--------------------------------------------------| 
E|--#-#-#-#-5-5-5-5-5-5-5-5--------------------------------------------------| 


verse 1 

    B5              Ab5                 Gb5 
e|---------------------------------------------------------------------------| 
B|---------------------------------------------------------------------------| 
G|-----------------------4-4-6-6b-6-4-4--------------------------------------| 
D|--9-9-9-9-9-9-9-9--6------------------4-4-4-4-4-4-4-4-----6-6-6-6-6-6-6-6--| 
A|--9-9-9-9-9-9-9-9--6---6-6-6----6-6-6-4-4-4-4-4-4-4-4-----6-6-6-6-6-6-6-6--| 
E|--7-7-7-7-7-7-7-7--4---4-4-4----4-4-4-2-2-2-2-2-2-2-2-----4-4-4-4-4-4-4-4--| 
    Daddy never understood              That I was up to no good 

    B5                            Ab5       
e|---------------------------------------------------------------------------| 
B|---------------------------------------------------------------------------| 
G|---------------------------------------4-4-6-6b-6-4-4----------------------| 
D|--9---9---9---9---9---9---9---9---6----------------------------------------| 
A|--9---9---9---9---9---9---9---9---6----6-6-6-6--6-6-6----------------------| 
E|--7---7---7---7---7---7---7---7---4----4-4-4-4--4-4-4----------------------| 
    He's storming at me in his sweatpants  

    Gb5                       Ab5 
e|---------------------------------------------------------------------------| 
B|---------------------------------------------------------------------------| 
G|---------------------------------------------------------------------------| 
D|--4--4--4--4--4--4--4--4-----6--6--6--6--6--6--6--6------------------------| 
A|--4--4--4--4--4--4--4--4-----6--6--6--6--6--6--6--6------------------------| 
E|--2--2--2--2--2--2--2--2-----4--4--4--4--4--4--4--4------------------------| 
    Well make me dance, let me dance, let me dance, Daddy 


Chorus 

            A5 
e|---------------------------------------------------------------------------| 
B|---------------------------------------------------------------------------| 
G|---------------------------------------------------------------------------| 
D|--#-#-#-#-7-7-7-7-7-7-7-7--------------------------------------------------| 4x 
A|--#-#-#-#-7-7-7-7-7-7-7-7--------------------------------------------------| 
E|--#-#-#-#-5-5-5-5-5-5-5-5--------------------------------------------------| 


verse 2 

   B5                       Ab5 
e|---------------------------------------------------------------------------| 
B|---------------------------------------------------------------------------| 
G|--------------------------------4-4-6-6b-6-4-4-----------------------------| 
D|--9--9--9--9--9--9--9--9-----6---------------------------------------------| 
A|--9--9--9--9--9--9--9--9-----6--6-6-6-6--6-6-6-----------------------------| 
E|--7--7--7--7--7--7--7--7-----4--4-4-4-4--4-4-4-----------------------------| 
    Sticky sweet between my fingers      

    Gb5                     Ab5 
e|---------------------------------------------------------------------------| 
B|---------------------------------------------------------------------------| 
G|---------------------------------------------------------------------------| 
D|--4--4--4--4--4--4--4--4--6-6-6-6-6-6-6-6----------------------------------| 
A|--4--4--4--4--4--4--4--4--6-6-6-6-6-6-6-6----------------------------------| 
E|--2--2--2--2--2--2--2--2--4-4-4-4-4-4-4-4----------------------------------| 
    Peanut  butter  on  my  pants 

   B5                      Ab5 
e|---------------------------------------------------------------------------| 
B|---------------------------------------------------------------------------| 
G|------------------------------4-4-6-6/7b\6-4-4-----------------------------| 
D|--9--9--9--9--9--9--9--9--6------------------------------------------------| 
A|--9--9--9--9--9--9--9--9--6---6-6-6-6------6-6-----------------------------| 
E|--7--7--7--7--7--7--7--7--4---4-4-4-4------4-4-----------------------------| 
    I'm  gonna  do  myself  good    

    Gb5                     Ab5 
e|---------------------------------------------------------------------------| 
B|---------------------------------------------------------------------------| 
G|---------------------------------------------------------------------------| 
D|--4--4--4--4--4--4--4--4--6-6-6-6-6-6-6-6----------------------------------| 
A|--4--4--4--4--4--4--4--4--6-6-6-6-6-6-6-6----------------------------------| 
E|--2--2--2--2--2--2--2--2--4-4-4-4-4-4-4-4----------------------------------| 
    'Cause Daddy never understood 


Solo 

e|---------------------------------------------------------------------------| 
B|-----------------------------11-12~----------------------------------------| 
G|-------------11p8-11p8-11p8----------------11p8-11p8-11p8------------------| 
D|--13~----------------------------------------------------------------------| 
A|---------------------------------------------------------------------------| 
E|---------------------------------------------------------------------------| 

e|---------------------------------------------------------------------------| 
B|--11----------------------------11-12~-------------------------------------| 
G|----------------11p8-11p8-11p8----------------11p8-8-11p8-8-11p8-11--------| 
D|-----13~-------------------------------------------------------------------| 
A|---------------------------------------------------------------------------| 
E|---------------------------------------------------------------------------| 


Chorus 

            A5 
e|---------------------------------------------------------------------------| 
B|---------------------------------------------------------------------------| 
G|---------------------------------------------------------------------------| 
D|--#-#-#-#-7--7--7--7--7--7--7--7-------------------------------------------| 4x 
A|--#-#-#-#-7--7--7--7--7--7--7--7-------------------------------------------| 
E|--#-#-#-#-5--5--5--5--5--5--5--5-------------------------------------------| 
            Daddy never understood 


************************************ 

| #   Scratch note 
| b   Bend 
| /   Slide up 
| \   Slide down 
| ~   Vibrato 

************************************ 
  

cifra enviadasem correções
enviado porenviada por:tamamoreira
top 5 | deluxx folk implosion
top rock'n roll
Outras músicas do artista letras do(a) Deluxx Folk Implosion
Top cifras »Top artistas »
Petaxxon Comunicação Online
Cifras.com.br - Melhor e mais completo site de cifras e tablaturas do Brasil
Mais de 1 milhão de acordes de músicas cadastradas desde 2003
As informações contidas no nosso site são colaborações de seus usuários e podem conter erros, sendo assim, não nos responsabilizamos sobre nenhuma destas.
close
menos
mais
close
Cor dos acordes:

Cor da letra:

 

save
close
close
 
redimensionar