Cifras e Tablaturas
Demon Hunter

Demon Hunter

Cold Winter Sun

Cifras Cancelar Versão de Impressão
cifras

Demon Hunter - Cold Winter Sun

fixar na tela  
Exibindo: vídeo-aula ver clipes redimensionar
  
SECTION 1 
Both Guitars 
C#|-------------------------------------------------------------| 
G#|-------------------------------------------------------------| 
E |-------------------------------------------------------------| 
B |-------------------------------------------------------------| 
F#|-----------------------------5-5-7-7-7-7-7-7-8-8-5-5-5-5-5-5-| 
B |-0-0-0-0-0-0-0-0-0-0-0-0-2-2---------------------------------| 

C#|---------------------------------------------------------------------------| 
G#|---------------------------------------------------------------------------| 
E |---------------------------------------------------------------------------| 
B |-----------------------------------------------------------------------3-3-| 
F#|-------------10-10-10---------10-10-10-----------------5h7-3-3-3-----------| 
B |-7-7-8-8-8-8----------7-7-8-8----------7-7-3-3-3-3-3-3-----------5-5-5-----| 

C#|-------------------------------------------------------------| 
G#|-------------------------------------------------------------| 
E |-------------------------------------------------------------| 
B |-------------------------------------------------------------| 
F#|-----------------------------5-5-7-7-7-7-7-7-8-8-5-5-5-5-5-5-| 
B |-0-0-0-0-0-0-0-0-0-0-0-0-2-2---------------------------------| 

C#|---------------------------------------------------------------------------| 
G#|---------------------------------------------------------------------------| 
E |---------------------------------------------------------------------------| 
B |-----------------------------------------------------------------------3-3-| 
F#|-------------10-10-10---------10-10-10-----------------5h7-3-3-3-----------| 
B |-7-7-8-8-8-8----------7-7-8-8----------7-7-3-3-3-3-3-3-----------5-5-5-----| 

SOLO 1 
NOTE: Rhythm plays SECTION 1 as backing  
Solo Guitar 
C#|--------------------------------------------------------------------------| 
G#|--------------------------------------------------------------------------| 
E |---------10----12b14--14b15-r14-12s10-12--14-14-s10--9--10--7h9--------10-| 
B |-/12v~------12--------------------------------------------------10--7-----| 
F#|--------------------------------------------------------------------------| 
B |--------------------------------------------------------------------------| 

C#|--------------------------------------------------------------------------| 
G#|--------------------------------------------13~---------------------------| 
E |---------10----12b14--14b15-r14-12s10-9--10-----10--9--10-----------------| 
B |-/12v~------12---------------------------------------------10--10-8-5-5v~-| 
F#|--------------------------------------------------------------------------| 
B |--------------------------------------------------------------------------| 

SECTION 2 
Guitar 1 
C#|-----------------------------------------------------------| 
G#|-----------------------------------------------------------| 
E |-----------------------------------------------------------| 
B |----------------5-----7------------------------------------| 
F#|------------------8-5----8-5------------------5s8--7--3--5-| 
B |-0-0-0-0--0-0-0--------------0-0-0-0-0--0-0-0--------------| 
  | . . .    . . .                . . .    . . .              | 
  |                                                           | 
Guitar 2                                                      | 
C#|-----------------------------------------------------------| 
G#|-----------------------------------------------------------| 
E |-----------------------------------------------------------| 
B |----------------5-----7-----------------------5s7--5-------| 
F#|------------------8-5----8-5--------------------------7--8-| 
B |-0-0-0-0--0-0-0--------------0-0-0-0-0--0-0-0--------------| 
    . . .    . . .                . . .    . . . 

Both Guitars 
C#|---------------------------------------------------------------| 
G#|---------------------------------------------------------------| 
E |---------------------------------------------------------------| 
B |-----------------5-----7--------------3---------------2--------| 
F#|-------------------8-5----8-5---5-3-0----5-3----3-0------------| 
B |-0-0-0-0-0-0-0-0--------------0--------------0------5----5-3-0-| 
    . . . . . . . . 

Guitar 1 
C#|-----------------------------------------------------------| 
G#|-----------------------------------------------------------| 
E |-----------------------------------------------------------| 
B |----------------5-----7------------------------------------| 
F#|------------------8-5----8-5------------------5s8--7--3--5-| 
B |-0-0-0-0--0-0-0--------------0-0-0-0-0--0-0-0--------------| 
  | . . .    . . .                . . .    . . .              | 
  |                                                           | 
Guitar 2                                                      | 
C#|-----------------------------------------------------------| 
G#|-----------------------------------------------------------| 
E |-----------------------------------------------------------| 
B |----------------5-----7-----------------------5s7--5-------| 
F#|------------------8-5----8-5--------------------------7--8-| 
B |-0-0-0-0--0-0-0--------------0-0-0-0-0--0-0-0--------------| 
    . . .    . . .                . . .    . . . 

Both Guitars 
C#|---------------------------------------------------------------| 
G#|---------------------------------------------------------------| 
E |---------------------------------------------------------------| 
B |-----------------5-----7--------------3---------------2--------| 
F#|-------------------8-5----8-5---5-3-0----5-3----3-0------------| 
B |-0-0-0-0-0-0-0-0--------------0--------------0------5----5-3-0-| 
    . . . . . . . . 

SECTION 3 
Guitar 1 
C#|-----------------------------------------------------------------| 
G#|-----------------------------------------------------------------| 
E |---------------------------------------------------------5-5-----| 
B |-----------------2-2-----3-3---------------------2-2-------------| 
F#|-1-1-1-1-1-1-1-1-----1-1-----1-1-3-3-3-3-3-3-3-3-----3-3-----3-3-| 
B |-----------------------------------------------------------------| 
  | . . .   . . . .     . .     . . . . .   . . . .     . .     . . | 
  |                                                                 | 
Guitar 2                                                            | 
C#|-----------------------------------------------------------------| 
G#|-----------------------------------------------------------------| 
E |---------------------------------------------------------2-2-----| 
B |-------------------------0-0-------------------------------------| 
F#|-1-1-1-1-1-1-1-1-3-3-1-1-----1-1-3-3-3-3-3-3-3-3-3-3-3-3-----3-3-| 
B |-----------------------------------------------------------------| 
    . . .   . . . .     . .     . . . . .   . . . .     . .     . . 

Guitar 1 
C#|-----------------------------------------------------------------| 
G#|-----------------------------------------------------------------| 
E |-----------------------------------------------------------------| 
B |-----------------8-8-----7-7-----------3-----3h5-------2-----3p2-| 
F#|-0-0-0-0-0-0-0-0-----0-0-----0-0---------------------------------| 
B |---------------------------------3-3-3---3-3-----2-2-2---2-2-----| 
  | . . .   . . . .     . .     . . . . .   . .     . . .   . .     | 
  |                                                                 | 
Guitar 2                                                            | 
C#|-----------------------------------------------------------------| 
G#|-----------------------------------------------------------------| 
E |-----------------------------------------------------------------| 
B |-----------------5-5-----3-3-------------------------------------| 
F#|-0-0-0-0-0-0-0-0-----0-0-----0-0-------5-----5h7-------3-----5p3-| 
B |---------------------------------3-3-3---3-3-----2-2-2---2-2-----| 
    . . .   . . . .     . .     . . . . .   . .     . . .   . . 

Guitar 1 
C#|-----------------------------------------------------------------| 
G#|-----------------------------------------------------------------| 
E |---------------------------------------------------------5-5-----| 
B |-----------------2-2-----3-3---------------------2-2-------------| 
F#|-1-1-1-1-1-1-1-1-----1-1-----1-1-3-3-3-3-3-3-3-3-----3-3-----3-3-| 
B |-----------------------------------------------------------------| 
  | . . .   . . . .     . .     . . . . .   . . . .     . .     . . | 
  |                                                                 | 
Guitar 2                                                            | 
C#|-----------------------------------------------------------------| 
G#|-----------------------------------------------------------------| 
E |---------------------------------------------------------2-2-----| 
B |-------------------------0-0-------------------------------------| 
F#|-1-1-1-1-1-1-1-1-3-3-1-1-----1-1-3-3-3-3-3-3-3-3-3-3-3-3-----3-3-| 
B |-----------------------------------------------------------------| 
    . . .   . . . .     . .     . . . . .   . . . .     . .     . . 

Guitar 1 
C#|-----------------------------------------------------------------| 
G#|-----------------------------------------------------------------| 
E |-----------------------------------------------------------------| 
B |-----------------8-8-----7-7-------------------------------------| 
F#|-0-0-0-0-0-0-0-0-----0-0-----0-0---------------------------------| 
B |---------------------------------3-3-3-3-3-3-3-3-2-2-2-2-2-2-2-2-| 
  | . . .   . . . .     . .     . .                                 | 
  |                                                                 | 
Guitar 2                                                            | 
C#|-----------------------------------------------------------------| 
G#|-----------------------------------------------------------------| 
E |-----------------------------------------------------------------| 
B |-----------------5-5-----3-3-------------------------------------| 
F#|-0-0-0-0-0-0-0-0-----0-0-----0-0---------------------------------| 
B |---------------------------------3-3-3-3-3-3-3-3-2-2-2-2-2-2-2-2-| 
    . . .   . . . .     . .     . . 

SECTION 1 
Both Guitars 
C#|-------------------------------------------------------------| 
G#|-------------------------------------------------------------| 
E |-------------------------------------------------------------| 
B |-------------------------------------------------------------| 
F#|-----------------------------5-5-7-7-7-7-7-7-8-8-5-5-5-5-5-5-| 
B |-0-0-0-0-0-0-0-0-0-0-0-0-2-2---------------------------------| 

C#|---------------------------------------------------------------------------| 
G#|---------------------------------------------------------------------------| 
E |---------------------------------------------------------------------------| 
B |-----------------------------------------------------------------------3-3-| 
F#|-------------10-10-10---------10-10-10-----------------5h7-3-3-3-----------| 
B |-7-7-8-8-8-8----------7-7-8-8----------7-7-3-3-3-3-3-3-----------5-5-5-----| 

C#|-------------------------------------------------------------| 
G#|-------------------------------------------------------------| 
E |-------------------------------------------------------------| 
B |-------------------------------------------------------------| 
F#|-----------------------------5-5-7-7-7-7-7-7-8-8-5-5-5-5-5-5-| 
B |-0-0-0-0-0-0-0-0-0-0-0-0-2-2---------------------------------| 

C#|---------------------------------------------------------------------------| 
G#|---------------------------------------------------------------------------| 
E |---------------------------------------------------------------------------| 
B |-----------------------------------------------------------------------3-3-| 
F#|-------------10-10-10---------10-10-10-----------------5h7-3-3-3-----------| 
B |-7-7-8-8-8-8----------7-7-8-8----------7-7-3-3-3-3-3-3-----------5-5-5-----| 

SECTION 2B 
Guitar 1 only 
C#|-----------------------------------------------------------| 
G#|-----------------------------------------------------------| 
E |-----------------------------------------------------------| 
B |----------------5-----7------------------------------------| 
F#|------------------8-5----8-5------------------5s8--7--3--5-| 
B |-0-0-0-0--0-0-0--------------0-0-0-0-0--0-0-0--------------| 
    . . .    . . .                . . .    . . . 

C#|---------------------------------------------------------------| 
G#|---------------------------------------------------------------| 
E |---------------------------------------------------------------| 
B |-----------------5-----7--------------3---------------2--------| 
F#|-------------------8-5----8-5---5-3-0----5-3----3-0------------| 
B |-0-0-0-0-0-0-0-0--------------0--------------0------5----5-3-0-| 
    . . . . . . . . 

Guitar 1 
C#|-----------------------------------------------------------| 
G#|-----------------------------------------------------------| 
E |-----------------------------------------------------------| 
B |----------------5-----7------------------------------------| 
F#|------------------8-5----8-5------------------5s8--7--3--5-| 
B |-0-0-0-0--0-0-0--------------0-0-0-0-0--0-0-0--------------| 
  | . . .    . . .                . . .    . . .              | 
  |                                                           | 
Guitar 2                                                      | 
C#|-----------------------------------------------------------| 
G#|-----------------------------------------------------------| 
E |-----------------------------------------------------------| 
B |----------------5-----7-----------------------5s7--5-------| 
F#|------------------8-5----8-5--------------------------7--8-| 
B |-0-0-0-0--0-0-0--------------0-0-0-0-0--0-0-0--------------| 
    . . .    . . .                . . .    . . . 

Both Guitars 
C#|---------------------------------------------------------------| 
G#|---------------------------------------------------------------| 
E |---------------------------------------------------------------| 
B |-----------------5-----7--------------3---------------2--------| 
F#|-------------------8-5----8-5---5-3-0----5-3----3-0------------| 
B |-0-0-0-0-0-0-0-0--------------0--------------0------5----5-3-0-| 
    . . . . . . . . 

SECTION 3B 
Guitar 1 
C#|-----------------------------------------------------------------| 
G#|-----------------------------------------------------------------| 
E |---------------------------------------------------------5-5-----| 
B |-----------------2-2-----3-3---------------------2-2-------------| 
F#|-1-1-1-1-1-1-1-1-----1-1-----1-1-3-3-3-3-3-3-3-3-----3-3-----3-3-| 
B |-----------------------------------------------------------------| 
  | . . .   . . . .     . .     . . . . .   . . . .     . .     . . | 
  |                                                                 | 
Guitar 2                                                            | 
C#|-----------------------------------------------------------------| 
G#|-----------------------------------------------------------------| 
E |---------------------------------------------------------2-2-----| 
B |-------------------------0-0-------------------------------------| 
F#|-1-1-1-1-1-1-1-1-3-3-1-1-----1-1-3-3-3-3-3-3-3-3-3-3-3-3-----3-3-| 
B |-----------------------------------------------------------------| 
    . . .   . . . .     . .     . . . . .   . . . .     . .     . . 

Guitar 1 
C#|-----------------------------------------------------------------| 
G#|-----------------------------------------------------------------| 
E |-----------------------------------------------------------------| 
B |-----------------8-8-----7-7-----------3-----3h5-------2-----3p2-| 
F#|-0-0-0-0-0-0-0-0-----0-0-----0-0---------------------------------| 
B |---------------------------------3-3-3---3-3-----2-2-2---2-2-----| 
  | . . .   . . . .     . .     . . . . .   . .     . . .   . .     | 
  |                                                                 | 
Guitar 2                                                            | 
C#|-----------------------------------------------------------------| 
G#|-----------------------------------------------------------------| 
E |-----------------------------------------------------------------| 
B |-----------------5-5-----3-3-------------------------------------| 
F#|-0-0-0-0-0-0-0-0-----0-0-----0-0-------5-----5h7-------3-----5p3-| 
B |---------------------------------3-3-3---3-3-----2-2-2---2-2-----| 
    . . .   . . . .     . .     . . . . .   . .     . . .   . . 

Both Guitars 
C#|------------------------------------------------------------------------| 
G#|------------------------------------------------------------------------| 
E |-3--3--3--3--3--3--3--3--5--5--5--5--5--5--5--5-------------------------| 
B |-3--3--3--3--3--3--3--3--5--5--5--5--5--5--5--5--7--7--7--7--7--7--7--7-| 
F#|-1--1--1--1--1--1--1--1--3--3--3--3--3--3--3--3--7--7--7--7--7--7--7--7-| 
B |-------------------------------------------------7--7--7--7--7--7--7--7-| 

C#|---------------------------------| 
G#|---------------------------------| 
E |---------------------------------| 
B |---------------------------------| 
F#|---------------------------------| 
B |-3-3-3-3-3-3-3-3-2-2-2-2-2-2-2-2-| 

SECTION 1 
Both Guitars 
C#|-------------------------------------------------------------| 
G#|-------------------------------------------------------------| 
E |-------------------------------------------------------------| 
B |-------------------------------------------------------------| 
F#|-----------------------------5-5-7-7-7-7-7-7-8-8-5-5-5-5-5-5-| 
B |-0-0-0-0-0-0-0-0-0-0-0-0-2-2---------------------------------| 

C#|---------------------------------------------------------------------------| 
G#|---------------------------------------------------------------------------| 
E |---------------------------------------------------------------------------| 
B |-----------------------------------------------------------------------3-3-| 
F#|-------------10-10-10---------10-10-10-----------------5h7-3-3-3-----------| 
B |-7-7-8-8-8-8----------7-7-8-8----------7-7-3-3-3-3-3-3-----------5-5-5-----| 

C#|-------------------------------------------------------------| 
G#|-------------------------------------------------------------| 
E |-------------------------------------------------------------| 
B |-------------------------------------------------------------| 
F#|-----------------------------5-5-7-7-7-7-7-7-8-8-5-5-5-5-5-5-| 
B |-0-0-0-0-0-0-0-0-0-0-0-0-2-2---------------------------------| 

C#|---------------------------------------------------------------------------| 
G#|---------------------------------------------------------------------------| 
E |---------------------------------------------------------------------------| 
B |-----------------------------------------------------------------------3-3-| 
F#|-------------10-10-10---------10-10-10-----------------5h7-3-3-3-----------| 
B |-7-7-8-8-8-8----------7-7-8-8----------7-7-3-3-3-3-3-3-----------5-5-5-----| 

SOLO 2 
Solo Guitar 1 
C#|--------------------------------------------------------------------------| 
G#|--------------------------------------------------------------------------| 
E |---------5-----9------7---------------------5-----9------7---9h10p9-------| 
B |-----5-7---7-5---10-7---7-10-7----------5-7---7-5---10-7---7--------12p10-| 
F#|-5-8---------------------------10-8-5-8-----------------------------------| 
B |--------------------------------------------------------------------------| 
  | 
Rhythm Guitar (repeats these two bars for all of SOLO 2} 
C#|-----------------------------------------------------------------| 
G#|-----------------------------------------------------------------| 
E |-----------------------------------------------------------------| 
B |-----------------------------------------------------------------| 
F#|-----------------------------------------------------------------| 
B |-0-0-0-0-0-0-0-0-0-0-0-0-0-0-0-0-0-0-0-0-0-0-0-0-0-0-0-0-0-0-0-0-| 

C#|-----------------------------------------------------------------| 
G#|-----------------------------------------------------------------| 
E |-----------------------------------------------------------------| 
B |-----------------------------------------------------------------| 
F#|-----------------------------------------------------------------| 
B |-3-3-3-3-3-3-3-3-3-3-3-3-3-3-3-3-3-3-3-3-3-3-3-3-3-3-3-3-2-2-5-5-| 

Solo Guitar 1 
C#|---------------------------------------------------------17-----15--------------| 
G#|--------------------------------------15-----13------------18-15--15-18-15------| 
E |-----------10-----14------12------------14-12--12-14-12-------------------17-14-| 
B |---7-10s12---12-10---15-12--12-15-12-------------------15-----------------------| 
F#|-8----------------------------------15------------------------------------------| 
B |--------------------------------------------------------------------------------| 

C#|-----------------------------------------------------------------------------| 
G#|-----------------------------------------------------------------------------| 
E |-17b19---19r17p14-17b19v---14h19p14s12----14---15-14------------12b14-12b14v-| 
B |---------------------------------------15------------15-12-10h12-------------| 
F#|-----------------------------------------------------------------------------| 
B |-----------------------------------------------------------------------------| 

C#|-------------------------------------------------------------| 
G#|-------------------------------------------------------------| 
E |-14-12-14-15-14-12-------------------------------------------| 
B |------------------14-12-14-15-14-12s10-8-7-8-7--7------------|(fast!) 
F#|----------------------------------------------10-10-8-10-8-7-| 
B |-------------------------------------------------------------| 

SOLO 3 
Solo Guitar 1 
C#|------------------------------------------------------------------------------| 
G#|------------------------------------------------------------------------------| 
E |------------7--5~---7-5/7-5-----------10-9-7-9-10/15--14--12-14-15p14p12------| 
B |-8~---7--8------------------5-3-3/7~------------------------------------14p15-| 
F#|------------------------------------------------------------------------------| 
B |------------------------------------------------------------------------------| 
  |                                                                              | 
Solo Guitar 2                                                                    | 
C#|------------------------------------------------------------------------------| 
G#|-------------------------------------10-8----8-10/15--13--11-13-15p13p11------| 
E |-7~------7-10--9~--10-9/10-9-----9~-------10----------------------------12h14-| 
B |-----10----------------------8-7----------------------------------------------| 
F#|------------------------------------------------------------------------------| 
B |------------------------------------------------------------------------------| 
  |                                                                              | 
Rhythm Guitar                                                                    | 
C#|----------------------------------------------------------------------------------| 
G#|----------------------------------------------------------------------------------| 
E |----------------------------------------------------------------------------------| 
B |----------------------------------------------------------------------------------| 
F#|-1--1-1-1-1-1-1-1-1-1-1-1-1-3--3-3-3-3-3-3-3-3-3-3-3-3-0--0-0-0-0-0-0-0-0-0-0-0-0-| 
B |----------------------------------------------------------------------------------| 
  |    . . . . . . . . . . . .    . . . . . . . . . . . .    . . . . . . . . . . . . 
C#|---------------------------------| 
G#|---------------------------------| 
E |---------------------------------| 
B |---------------------------------| 
F#|---------------------------------| 
B |-3-3-3-3-3-3-3-3-2-2-2-2-2-2-2-2-| 

Solo Guitar 1 
C#|-13-10-12-10-----13-10-12-10-----13-10-12-10-15-12-13-12-----15-12-13-12-----15-12-13-12-| 
G#|------------10-11-----------10-11-----------------------12-13-----------12-13------------| 
E |-----------------------------------------------------------------------------------------| 
B |-----------------------------------------------------------------------------------------| 
F#|-----------------------------------------------------------------------------------------| 
B |-----------------------------------------------------------------------------------------| 
  |                                                                                         | 
Solo Guitar 2                                                                               | 
C#|-17-13-15-13-----17-13-15-13-----17-13-15-13-18-15-17-15-----18-15-17-15-----18-15-17-15-| 
G#|------------13-15-----------13-15-----------------------15-17-----------15-17------------| 
E |-----------------------------------------------------------------------------------------| 
B |-----------------------------------------------------------------------------------------| 
F#|-----------------------------------------------------------------------------------------| 
B |-----------------------------------------------------------------------------------------| 
  |                                                | 
Rhythm Guitar                                      | 
C#|------------------------------------------------| 
G#|------------------------------------------------| 
E |-3--3--3--3--3--3--3--3--5--5--5--5--5--5--5--5-| 
B |-3--3--3--3--3--3--3--3--5--5--5--5--5--5--5--5-| 
F#|-1--1--1--1--1--1--1--1--3--3--3--3--3--3--3--3-| 
B |------------------------------------------------| 

Solo Guitar 1 
C#|-17-13-15-13-----17-13-15-13-----17-13-15-13-17-13-15-13-18-15-17-15-18-15-17-15-20-17-18-17-| 
G#|------------13-15-----------13-15------------------------------------------------------------| 
E |---------------------------------------------------------------------------------------------| 
B |---------------------------------------------------------------------------------------------| 
F#|---------------------------------------------------------------------------------------------| 
B |---------------------------------------------------------------------------------------------| 
  |                                                                                             | 
Solo Guitar 2                                                                                   | 
C#|-20-17-18-17-----20-17-18-17-----20-17-18-17-20-17-18-17-22-18-20-18-22-18-20-18-24-20-22-20-| 
G#|------------17-18-----------17-18------------------------------------------------------------| 
E |---------------------------------------------------------------------------------------------| 
B |---------------------------------------------------------------------------------------------| 
F#|---------------------------------------------------------------------------------------------| 
B |---------------------------------------------------------------------------------------------| 
  |                                                           | 
Rhythm Guitar                                                 | 
C#|-----------------------------------------------------------| 
G#|-----------------------------------------------------------| 
E |-----------------------------------------------------------| 
B |-7--7--7--7--7--7--7--7------------------------------------| 
F#|-7--7--7--7--7--7--7--7------------------------------------| 
B |-7--7--7--7--7--7--7--7--3-3-3-3-3-3-3-3-3-2-2-2-2-2-2-2-2-| 

SECTION 1 
Both Guitars 
C#|-------------------------------------------------------------| 
G#|-------------------------------------------------------------| 
E |-------------------------------------------------------------| 
B |-------------------------------------------------------------| 
F#|-----------------------------5-5-7-7-7-7-7-7-8-8-5-5-5-5-5-5-| 
B |-0-0-0-0-0-0-0-0-0-0-0-0-2-2---------------------------------| 

C#|---------------------------------------------------------------------------| 
G#|---------------------------------------------------------------------------| 
E |---------------------------------------------------------------------------| 
B |-----------------------------------------------------------------------3-3-| 
F#|-------------10-10-10---------10-10-10-----------------5h7-3-3-3-----------| 
B |-7-7-8-8-8-8----------7-7-8-8----------7-7-3-3-3-3-3-3-----------5-5-5-----| 

C#|-------------------------------------------------------------| 
G#|-------------------------------------------------------------| 
E |-------------------------------------------------------------| 
B |-------------------------------------------------------------| 
F#|-----------------------------5-5-7-7-7-7-7-7-8-8-5-5-5-5-5-5-| 
B |-0-0-0-0-0-0-0-0-0-0-0-0-2-2---------------------------------| 

C#|---------------------------------------------------------------------------| 
G#|---------------------------------------------------------------------------| 
E |---------------------------------------------------------------------------| 
B |-----------------------------------------------------------------------3-3-| 
F#|-------------10-10-10---------10-10-10-----------------5h7-3-3-3-----------| 
B |-7-7-8-8-8-8----------7-7-8-8----------7-7-3-3-3-3-3-3-----------5-5-5-----| 

SECTION 1B 
Lead Guitar 
C#|-------------------------------------------------------------------------------| 
G#|-------------------------------------------------------------------------------| 
E |------14-14--12--------------12------------------------------------------------| 
B |-12-15-----14--12-12-15-12-14--12--14-12-12--12-12--12-12--12-12--12-12--14-12-| 
F#|---------------------------------15--------15-----15-----15-----15-----15------| 
B |-------------------------------------------------------------------------------| 
  | 
Rhythm Guitar 
C#|-------------------------------------------------------------| 
G#|-------------------------------------------------------------| 
E |-------------------------------------------------------------| 
B |-------------------------------------------------------------| 
F#|-----------------------------5-5-7-7-7-7-7-7-8-8-5-5-5-5-5-5-| 
B |-0-0-0-0-0-0-0-0-0-0-0-0-2-2---------------------------------| 

Lead Guitar 
C#|-------------------------------------------------------------------------------| 
G#|-------------------------------------------------------------------------------| 
E |------14-14--12--------------12------------------------------------------------| 
B |-12-15-----14--12-12-15-12-14--12--14-12-12--12-12--12-12--12-12--12-12--14-12-| 
F#|---------------------------------15--------15-----15-----15-----15-----15------| 
B |-------------------------------------------------------------------------------| 
  | 
Rhythm Guitar 
C#|---------------------------------------------------------------------------| 
G#|---------------------------------------------------------------------------| 
E |---------------------------------------------------------------------------| 
B |-----------------------------------------------------------------------3-3-| 
F#|-------------10-10-10---------10-10-10-----------------5h7-3-3-3-----------| 
B |-7-7-8-8-8-8----------7-7-8-8----------7-7-3-3-3-3-3-3-----------5-5-5-----| 

Lead Guitar 
C#|-------------------------------------------------------------------------------| 
G#|-------------------------------------------------------------------------------| 
E |------14-14--12--------------12------------------------------------------------| 
B |-12-15-----14--12-12-15-12-14--12--14-12-12--12-12--12-12--12-12--12-12--14-12-| 
F#|---------------------------------15--------15-----15-----15-----15-----15------| 
B |-------------------------------------------------------------------------------| 
  | 
Rhythm Guitar 
C#|-------------------------------------------------------------| 
G#|-------------------------------------------------------------| 
E |-------------------------------------------------------------| 
B |-------------------------------------------------------------| 
F#|-----------------------------5-5-7-7-7-7-7-7-8-8-5-5-5-5-5-5-| 
B |-0-0-0-0-0-0-0-0-0-0-0-0-2-2---------------------------------| 

Lead Guitar 
C#|-------------------------------------------------------------------------------| 
G#|-------------------------------------------------------------------------------| 
E |------14-14--12--------------12------------------------------------------------| 
B |-12-15-----14--12-12-15-12-14--12--14-12-12--12-12--12-12--12-12--12-12--14-12-| 
F#|---------------------------------15--------15-----15-----15-----15-----15------| 
B |-------------------------------------------------------------------------------| 
  | 
Rhythm Guitar 
C#|---------------------------------------------------------------------------| 
G#|---------------------------------------------------------------------------| 
E |---------------------------------------------------------------------------| 
B |-----------------------------------------------------------------------3-3-| 
F#|-------------10-10-10---------10-10-10-----------------5h7-3-3-3-----------| 
B |-7-7-8-8-8-8----------7-7-8-8----------7-7-3-3-3-3-3-3-----------5-5-5-----| 

Lead Guitar 
C#|---------------------------------------| 
G#|---------------------------------------| 
E |---------------------------------------| 
B |-12--12-12--12-12--12-12--12-12--14-12-| 
F#|---15-----15-----15-----15-----15------| 
B |---------------------------------------| 
  | 
Rhythm Guitar 
C#|----------------------------------------| 
G#|----------------------------------------| 
E |----------------------------------------| 
B |-----------------------------3-3-0--12\-| 
F#|-------------5h7-3-3-3-----------0--12\-| 
B |-3-3-3-3-3-3-----------5-5-5-----0--12\-| 

There are a lot of different guitar tracks that are mixed in different places 
in the song making some of these parts hard to hear or organize. Feel free to 
leave questions. 
Please rate & comment. 
Thanks, 
millarso 

************************************ 

| .   palm mute 
| /   slide up 
| \   slide down 
| h   hammer-on 
| p   pull-off 
| ~   let note ring 
| v   vibrato 
| s   slide between notes 
| x   Mute note 
| b   Bend 
| br  Bend release 
| brb Bend release bend 

************************************ 
  

top 5 | demon hunter
top heavy metal
Outras músicas do artista letras do(a) Demon Hunter
Top cifras »Top artistas »
Petaxxon Comunicação Online
Cifras.com.br - Melhor e mais completo site de cifras e tablaturas do Brasil
Mais de 1 milhão de acordes de músicas cadastradas desde 2003
As informações contidas no nosso site são colaborações de seus usuários e podem conter erros, sendo assim, não nos responsabilizamos sobre nenhuma destas.
close
menos
mais
close
Cor dos acordes:

Cor da letra:

 

save
close
close
 
redimensionar