Cifras e Tablaturas
Demon Hunter

Demon Hunter

The Heart Of A Graveyard

Cifras Cancelar Versão de Impressão

Demon Hunter - The Heart Of A Graveyard

Tom: B

  			Intro 
(Acoustic) 
e|---------------------------------------------------------------------------| 
B|---------------------------------------------------------------------------| 
G|-4-4-4-4---------2-2-2-2---------4-4-4-4---------2-2-2-2-------------------| 
D|-4-4-4-4-0-0-0-0-2-2-2-2-2-2-2-2-4-4-4-4-0-0-0-0-2-2-2-2-2-2-2-2-----------| 
A|-2-2-2-2-0-0-0-0-0-0-0-0-2-2-2-2-2-2-2-2-0-0-0-0-0-0-0-0-2-2-2-2-----------| 
D|---------0-0-0-0---------2-2-2-2---------0-0-0-0---------2-2-2-2-----------| 

(Electric and Acoustic) 
e|---------------------------------------------------------------------------| 
B|---------------------------------------------------------------------------| 
G|-4-4-4-4---------2-2-2-2---------4-4-4-4---------2-2-2-2-------------------| 
D|-4-4-4-4-0-0-0-0-2-2-2-2-2-2-2-2-4-4-4-4-0-0-0-0-2-2-2-2-2-2-2-2-----------| 
A|-2-2-2-2-0-0-0-0-0-0-0-0-2-2-2-2-2-2-2-2-0-0-0-0-0-0-0-0-2-2-2-2-----------| 
D|---------0-0-0-0---------2-2-2-2---------0-0-0-0---------2-2-2-2-----------| 

verse 1 
(No guitar, but chords are B F#m E B F#m D E twice) 

Pre-Chorus} 
e|---------------------------------------------------------------------------| 
B|---------------------------------------------------------------------------| 
G|---------------------------------2-2-2-2-2-2-2-2---------------------------| 
D|-4-4-4-4-4-4-4-4-0-0-0-0-0-0-0-0-2-2-2-2-2-2-2-2-2-2-2-2-2-2-2-2-----------| 
A|-4-4-4-4-4-4-4-4-0-0-0-0-0-0-0-0-0-0-0-0-0-0-0-0-2-2-2-2-2-2-2-2-----------| 
D|-4-4-4-4-4-4-4-4-0-0-0-0-0-0-0-0-----------------2-2-2-2-2-2-2-2-----------| 
PM--------------------------------------------------------------- 

e|---------------------------------------------------------------------------| 
B|---------------------------------------------------------------------------| 
G|---------------------------------2-2-2-2-2-2-2-2---------------------------| 
D|-4-4-4-4-4-4-4-4-0-0-0-0-0-0-0-0-2-2-2-2-2-2-2-2-2-2-2-2-2-2-2-2-----------| 
A|-4-4-4-4-4-4-4-4-0-0-0-0-0-0-0-0-0-0-0-0-0-0-0-0-2-2-2-2-2-2-2-2-----------| 
D|-4-4-4-4-4-4-4-4-0-0-0-0-0-0-0-0-----------------2-2-2-2-2-2-2-2-----------| 
PM-------------------------------------------------------- 

Chorus 
e|---------------------------------------------------------------------------| 
B|---------------------------------------------------------------------------| 
G|-----------------2-2-2-2----------------------------2-2-2-2----------------| 
D|-4-4-4-4-0-0-0-0-2-2-2-2-2-2-2-2----4-4-4-4-0-0-0-0-2-2-2-2-2-2-2-2--------| 
A|-4-4-4-4-0-0-0-0-0-0-0-0-2-2-2-2----4-4-4-4-0-0-0-0-0-0-0-0-2-2-2-2--------| 
D|-4-4-4-4-0-0-0-0---------2-2-2-2----4-4-4-4-0-0-0-0---------2-2-2-2--------| 

Post-Chorus 
e|---------------------------------------------------------------------------| 
B|---------------------------------------------------------------------------| 
G|-4-4-4-4---------2-2-2-2---------4-4-4-4---------2-2-2-2-------------------| 
D|-4-4-4-4-0-0-0-0-2-2-2-2-2-2-2-2-4-4-4-4-0-0-0-0-2-2-2-2-2-2-2-2-----------| 
A|-2-2-2-2-0-0-0-0-0-0-0-0-2-2-2-2-2-2-2-2-0-0-0-0-0-0-0-0-2-2-2-2-----------| 
D|---------0-0-0-0---------2-2-2-2---------0-0-0-0---------2-2-2-2-----------| 

verse 2 
(No guitar, but chords are B F#m E B F#m D E) 

Pre-Chorus} 
e|---------------------------------------------------------------------------| 
B|---------------------------------------------------------------------------| 
G|---------------------------------2-2-2-2-2-2-2-2---------------------------| 
D|-4-4-4-4-4-4-4-4-0-0-0-0-0-0-0-0-2-2-2-2-2-2-2-2-2-2-2-2-2-2-2-2-----------| 
A|-4-4-4-4-4-4-4-4-0-0-0-0-0-0-0-0-0-0-0-0-0-0-0-0-2-2-2-2-2-2-2-2-----------| 
D|-4-4-4-4-4-4-4-4-0-0-0-0-0-0-0-0-----------------2-2-2-2-2-2-2-2-----------| 
PM--------------------------------------------------------------- 

e|---------------------------------------------------------------------------| 
B|---------------------------------------------------------------------------| 
G|---------------------------------2-2-2-2-2-2-2-2---------------------------| 
D|-4-4-4-4-4-4-4-4-0-0-0-0-0-0-0-0-2-2-2-2-2-2-2-2-2-2-2-2-2-2-2-2-----------| 
A|-4-4-4-4-4-4-4-4-0-0-0-0-0-0-0-0-0-0-0-0-0-0-0-0-2-2-2-2-2-2-2-2-----------| 
D|-4-4-4-4-4-4-4-4-0-0-0-0-0-0-0-0-----------------2-2-2-2-2-2-2-2-----------| 
PM-------------------------------------------------------- 

Chorus 
e|---------------------------------------------------------------------------| 
B|---------------------------------------------------------------------------| 
G|-----------------2-2-2-2----------------------------2-2-2-2----------------| 
D|-4-4-4-4-0-0-0-0-2-2-2-2-2-2-2-2----4-4-4-4-0-0-0-0-2-2-2-2-2-2-2-2--------| 
A|-4-4-4-4-0-0-0-0-0-0-0-0-2-2-2-2----4-4-4-4-0-0-0-0-0-0-0-0-2-2-2-2--------| 
D|-4-4-4-4-0-0-0-0---------2-2-2-2----4-4-4-4-0-0-0-0---------2-2-2-2--------| 

Post-Chorus 
e|---------------------------------------------------------------------------| 
B|---------------------------------------------------------------------------| 
G|-4-4-4-4---------2-2-2-2---------4-4-4-4---------2-2-2-2-------------------| 
D|-4-4-4-4-0-0-0-0-2-2-2-2-2-2-2-2-4-4-4-4-0-0-0-0-2-2-2-2-2-2-2-2-----------| 
A|-2-2-2-2-0-0-0-0-0-0-0-0-2-2-2-2-2-2-2-2-0-0-0-0-0-0-0-0-2-2-2-2-----------| 
D|---------0-0-0-0---------2-2-2-2---------0-0-0-0---------2-2-2-2-----------| 

Chorus 
e|---------------------------------------------------------------------------| 
B|---------------------------------------------------------------------------| 
G|-----------------2-2-2-2----------------------------2-2-2-2----------------| 
D|-4-4-4-4-0-0-0-0-2-2-2-2-2-2-2-2----4-4-4-4-0-0-0-0-2-2-2-2-2-2-2-2--------| 
A|-4-4-4-4-0-0-0-0-0-0-0-0-2-2-2-2----4-4-4-4-0-0-0-0-0-0-0-0-2-2-2-2--------| 
D|-4-4-4-4-0-0-0-0---------2-2-2-2----4-4-4-4-0-0-0-0---------2-2-2-2--------| 

Bridge 
e|--------------| 
B|--------------| 
G|-4-x-6-x-7----| 
D|-4-x-6-x-7----| (x4) 
A|-2-x-4-x-5----| 
D|--------------| 

Pre-Chorus 
(No guitar) 

Chorus 
e|---------------------------------------------------------------------------| 
B|---------------------------------------------------------------------------| 
G|-----------------2-2-2-2----------------------------2-2-2-2----------------| 
D|-4-4-4-4-0-0-0-0-2-2-2-2-2-2-2-2----4-4-4-4-0-0-0-0-2-2-2-2-2-2-2-2--------| 
A|-4-4-4-4-0-0-0-0-0-0-0-0-2-2-2-2----4-4-4-4-0-0-0-0-0-0-0-0-2-2-2-2--------| 
D|-4-4-4-4-0-0-0-0---------2-2-2-2----4-4-4-4-0-0-0-0---------2-2-2-2--------| 

Post-Chorus 
e|---------------------------------------------------------------------------| 
B|---------------------------------------------------------------------------| 
G|-4-4-4-4---------2-2-2-2---------4-4-4-4---------2-2-2-2-------------------| 
D|-4-4-4-4-0-0-0-0-2-2-2-2-2-2-2-2-4-4-4-4-0-0-0-0-2-2-2-2-2-2-2-2-----------| 
A|-2-2-2-2-0-0-0-0-0-0-0-0-2-2-2-2-2-2-2-2-0-0-0-0-0-0-0-0-2-2-2-2-----------| 
D|---------0-0-0-0---------2-2-2-2---------0-0-0-0---------2-2-2-2-----------| 

Chorus 
e|---------------------------------------------------------------------------| 
B|---------------------------------------------------------------------------| 
G|-----------------2-2-2-2----------------------------2-2-2-2----------------| 
D|-4-4-4-4-0-0-0-0-2-2-2-2-2-2-2-2----4-4-4-4-0-0-0-0-2-2-2-2-2-2-2-2--------| 
A|-4-4-4-4-0-0-0-0-0-0-0-0-2-2-2-2----4-4-4-4-0-0-0-0-0-0-0-0-2-2-2-2--------| 
D|-4-4-4-4-0-0-0-0---------2-2-2-2----4-4-4-4-0-0-0-0---------2-2-2-2--------| 

Outro 
e|--------------| 
B|--------------| 
G|-4-x-6-x-7~---| 
D|-4-x-6-x-7~---| 
A|-2-x-4-x-5~---| 
D|--------------| 



************************************ 

| x   Dead note 
| ~   Vibrato 

************************************ 
    	
fixar
fixar inscrever-se

enviado porenviado por: edsooliveira
cifra enviadaCorrigida por: sem correções
logo top cifrasComente
ico música do artistaMúsicas deste artista
ico curtiuCurtiu?
ico destaqueDestaque
Petaxxon Comunicação Online

Cifras.com.br - Melhor e mais completo site de cifras e tablaturas do Brasil Mais de 1 milhão de acordes de músicas cadastradas desde 2003
As informações contidas no nosso site são colaborações de seus usuários e podem conter erros, sendo assim, não nos responsabilizamos sobre nenhuma destas.

close
menos
mais
close
Cor dos acordes:

Cor da letra:

close
Alinhar acordes a direita Alinhar acordes a esquerda Alinhar acordes em baixo Alinhar acordes no topo
close
  Mostrar todos os acordes Esconder acordes muito fáceis Esconder acordes fáceis Esconder acordes intermediários
redimensionar
glossário