Cifras e Tablaturas
Denzel Curry

Denzel Curry

Ultimate

Cifras Cancelar Versão de Impressão
cifras

Denzel Curry - Ultimate

fixar na tela  
Exibindo: vídeo-aula ver clipes redimensionar

Tom:

  
Intro 

Rhythm should be pretty easy to figure out. 
e|---------------------------------------------------------------------------| 
B|-12-12-12-12-12-5-9-11-12-12-12-12-12-5-9-11-------------------------------| 
G|---------------------------------------------------------------------------| 
D|---------------------------------------------------------------------------| 
A|---------------------------------------------------------------------------| 
E|---------------------------------------------------------------------------| 

e|---------------------------------------------------------------------------| 
B|-12-12-12-12-12-5-9-11-10-10-10-9-5----------------------------------------| 
G|---------------------------------------------------------------------------| 
D|---------------------------------------------------------------------------| 
A|---------------------------------------------------------------------------| 
E|---------------------------------------------------------------------------| 


Verse & Chorus 

This is the melody that is played throughout most of the song. It sometimes goes through to the 7th fret 
and sometimes stops on the 11th fret. You will need to listen to the song to find the exact parts in which 
the full 12-12-11-7 is played and the 12-12-11 is played. The good thing is the melody is really easy 
to make out in the song. 

e|-12----11-7-----12----11-7---12--11--7------12----11-----------------------| 
B|----12-------------12----------12--------------12--------------------------| 
G|---------------------------------------------------------------------------| And keep repeating until 
D|---------------------------------------------------------------------------| outro. 
A|---------------------------------------------------------------------------| 
E|---------------------------------------------------------------------------| 
                                                  Abrupt stop on 11th after "...up on the street." 

*On the last Chorus the intro is played. 


Outro 

e|-12-----13-------13-12----13--------13-12----------------------------------| 
B|----5-9---5-9-12------5-9----5-9-12----------------------------------------| 
G|---------------------------------------------------------------------------| 
D|---------------------------------------------------------------------------| 
A|---------------------------------------------------------------------------| 
E|---------------------------------------------------------------------------| 
  

top 5 | denzel curry
top rock'n roll
Outras músicas do artista letras do(a) Denzel Curry
Top cifras »Top artistas »
Petaxxon Comunicação Online
Cifras.com.br - Melhor e mais completo site de cifras e tablaturas do Brasil
Mais de 1 milhão de acordes de músicas cadastradas desde 2003
As informações contidas no nosso site são colaborações de seus usuários e podem conter erros, sendo assim, não nos responsabilizamos sobre nenhuma destas.
close
menos
mais
close
Cor dos acordes:

Cor da letra:

 

save
close
close
 
redimensionar