Cifras e Tablaturas
Der W

Der W

Bitte Töte Mich

Cifras Cancelar Versão de Impressão
cifras

Der W - Bitte Töte Mich

fixar na tela  
Exibindo: vídeo-aula ver clipes redimensionar

Tom:

  
Intro 
  (4x) 
e|---------------------------------------------------------------------------| 
B|---------------------------------------------------------------------------| 
G|---------------------------------------------------------------------------| 
D|-6-2-7-6-----4-------------------------------------------------------------| 
A|-4-2-7-6-----2-------------------------------------------------------------| 
E|-4-0-5-4-x-x-2-------------------------------------------------------------| 

  Guitar I: 
  (2x) 
e|---------------------------------------------------------------------------| 
B|---------------------------------------------------------------------------| 
G|-9-8-6---------------------------------------------------------------------| 
D|-x-x-x---------------------------------------------------------------------| 
A|-7-6-4---4-4-6-7-6---------------------------------------------------------| 
E|---------------------------------------------------------------------------| 
          |--PM--| 

  Guitar II: 
  (2x) 
e|---------------------------------------------------------------------------| 
B|---------------------------------------------------------------------------| 
G|---------------------------------------------------------------------------| 
D|-6---------7-6---------9---------------------------------------------------| 
A|-4---------7-6---------9---------------------------------------------------| 
E|-4-5-5-5-5-5-4-7-7-7-7-7---------------------------------------------------| 
     |--PM--|    |--PM--| 

Verse 
  (2x) 
e|---------------------------------------------------------------------------| 
B|---------------------------------------------------------------------------| 
G|---------------------------4-----------------------------------------------| 
D|---------------------------4-----------------------------------------------| 
A|-4-4-4-------------2-2-2-2-2-----------------------------------------------| 
E|-------5-5-5-4-4-4---------------------------------------------------------| 
   |---------- PM ----------| 

  (2x) 
e|---------------------------------------------------------------------------| 
B|---------------------------------------------------------------------------| 
G|-6------------------------------------4-4--4-4-----------------------------| 
D|-6-----------7-----------6------------4-4--4-4-----------------------------| 
A|-4-4-4-4-4-4-7-----------6------------2-2--2-2-----------------------------| 
E|-------------5-5-5-5-5-5-4-4-4-4-4-4---------------------------------------| 
    |---PM---|  |---PM---|  |---PM---| 

  Guitar I: 
e|---------------------------------------------------------------------------| 
B|---------------------------------------------------------------------------| 
G|-9-9-9--9-9----11-11-11--11-11---13-13-13--13-13----14-14-14--14-14--------| 
D|-x-x-x--x-x----x--x--x---x--x----x--x--x---x--x-----x--x--x---x--x---------| 
A|-7-7-7--7-7----9--9--9---9--9----11-11-11--11-11----12-12-12--12-12--------| 
E|---------------------------------------------------------------------------| 

  Guitar II: 
e|---------------------------------------------------------------------------| 
B|---------------------------------------------------------------------------| 
G|---------------------------------------------------------------------------| 
D|-4-4-4-4-4---4-4-4-4-4-----------------------------------------------------| 
A|-2-0-2-2-2---2-0-2-2-2---4-4-4-4-4---4-4-4-4-4-----------------------------| 
E|-------------------------2-0-2-2-2---2-0-2-2-2-----------------------------| 

Chorus 
  Guitar I: 
  (4x) 
e|---------------------------------------------------------------------------| 
B|---------------------------------------------------------------------------| 
G|-9-9-9-9-9-9-8-9-9-9-9-9--8-8-8-8-8-8--------------------------------------| 
D|-x-x-x-x-x-x-x-x-x-x-x-x--x-x-x-x-x-x--------------------------------------| 
A|-7-7-7-7-7-7-6-7-7-7-7-7--6-6-6-6-6-6--------------------------------------| 
E|---------------------------------------------------------------------------| 

  Guitar II: 
  (2x) 
e|---------------------------------------------------------------------------| 
B|---------------------------------------------------------------------------| 
G|-6-6-6-6-6-6-------------------------4-4-4-4-4-4---------------------------| 
D|-6-6-6-6-6-6-7-7-7-7-7-7-6-6-6-6-6-6-4-4-4-4-4-4---------------------------| 
A|-4-4-4-4-4-4-7-7-7-7-7-7-6-6-6-6-6-6-2-2-2-2-2-2---------------------------| 
E|-------------5-5-5-5-5-5-4-4-4-4-4-4---------------------------------------| 

e|---------------------------------------------------------------------------| 
B|---------------------------------------------------------------------------| 
G|-9-9-9-9-9-9-6-6-6-6-6-6-4-4-4-4-4-4-2-2-2-2-------------------------------| 
D|-9-9-9-9-9-9-6-6-6-6-6-6-4-4-4-4-4-4-2-2-2-2-------------------------------| 
A|-7-7-7-7-7-7-4-4-4-4-4-4-2-2-2-2-2-2-0-0-0-0-------------------------------| 
E|---------------------------------------------------------------------------| 

Bridge before guitar solo 
e|---------------------------------------------------------------------------| 
B|---------------------------------------------------------------------------| 
G|---------------------------------------------------------------------------| 
D|-------4---------5---------------------------------------------------------| 
A|-------4---------5---------------------------------------------------------| 
E|-0-2-0-2---0-2-0-3---------------------------------------------------------| 
  |-PM-|    |-PM-| 

Solo 
  Guitar I: 
e|---------------------------------------------------------------------------| 
B|-------------------------------------12-----------12-14b16-14--------------| 
G|-8h9-9--9-9-8h9-9-8h9-9/13-----13-----------------------------13-----------| 
D|----------------------------14-14-14-----14-13/14--------------------------| 
A|---------------------------------------------------------------------------| 
E|---------------------------------------------------------------------------| 

e|-------12-----------12-------------------------------------------------------------------------14b16---| 
B|-----------------12-----14/17\16-14--------------12-12-14----12-12-14----------------------------------| 
G|----13--------13--------------------13--------13----------13----------13\11-----13-13-13-14-16---------| 
D|-14--------14--------------------------14-11-----------------------------------------------------------| 
A|-------------------------------------------------------------------------------------------------------| 
E|-------------------------------------------------------------------------------------------------------| 

   Guitar II: 
e|---------------------------------------------------------------------------| 
B|---------------------------------------------------------------------------| 
G|-----2----2---2-2-2-2--4-4-4-6-6-6-----------------------------------------| 
D|-----2----2-4-2-2-2-2--4-4-4-6-6-6-----------------------------------------| 
A|---x-0----0-0-0-0-0-0--2-2-2-4-4-4-----------------------------------------| 
E|-\-------------------------------------------------------------------------| 

e|------------------------------------------------------------------| 
B|------------------------------------------------------------------| 
G|-2---2-2-2-2--4-4-4-6-6-6-----------------------------------------| 
D|-2-4-2-2-2-2--4-4-4-6-6-6-----------------------------------------| 
A|-0-0-0-0-0-0--2-2-2-4-4-4-----------------------------------------| 
E|------------------------------------------------------------------| 

e|---------------------------------------------------------------------------| 
B|---------------------------------------------------------------------------| 
G|-2---2-2-------2--4-4-4-6-------6------------------------------------------| 
D|-2-4-2-2-------2--4-4-4-6-------6------------------------------------------| 
A|-0-0-0-0-x-x-x-0--2-2-2-4-x-x-x-4------------------------------------------| 
E|---------------------------------------------------------------------------| 

e|---------------------------------------------------------------------------| 
B|---------------------------------------------------------------------------| 
G|-2---2-2-------2--4-4-4-6-------6-4----------------------------------------| 
D|-2-4-2-2-------2--4-4-4-6-------6-4----------------------------------------| 
A|-0-0-0-0-x-x-x-0--2-2-2-4-x-x-x-4-2----------------------------------------| 
E|---------------------------------------------------------------------------| 

e|---------------------------------------------------------------------------| 
B|---------------------------------------------------------------------------| 
G|-6-6-6-6-6-6-6-6-8-8-8-8-9-9-----------------------------------------------| 
D|-x-x-x-x-x-x-x-x-x-x-x-x-x-x-----------------------------------------------| 
A|-4-4-4-4-4-4-4-4-6-6-6-6-7-7-----------------------------------------------| 
E|---------------------------------------------------------------------------| 

Outro 
  (3x) 
e|---------------------------------------------------------------------------| 
B|---------------------------------------------------------------------------| 
G|-9-9-10-13---9-9-10-13---9-9-10-13-----18-18-------------------------------| 
D|-x-x-x--x----x-x-x--x----x-x-x--x------x--x--------------------------------| 
A|-7-7-9--11---7-7-9--11---7-7-9--11-----16-16-14----------------------------| 
E|------------------------------------------------16-14----------------------| 

e|---------------------------------------------------------------------------| 
B|---------------------------------------------------------------------------| 
G|-9-9-10-13---9-9-10-13---9-9-10-13-----18-18-------------------------------| 
D|-x-x-x--x----x-x-x--x----x-x-x--x------x--x--------------------------------| 
A|-7-7-9--11---7-7-9--11---7-7-9--11-----16-16-16-16-16-16-16-16-16-16-16-16-| 
E|-----------------------------------------------------------------------| 

e|---------------------------------------------------------------------------| 
B|---------------------------------------------------------------------------| 
G|---------------------------------------------------------------------------| 
D|----------------------------16-16-16-18-18-18-18-18-18-18-18-18-18-18-18---| 
A|-16-16-16-18-18-18-19-19-19------------------------------------------------| 
E|---------------------------------------------------------------------------| 



************************************ 

| x   Dead note 
| h   Hammer-on 
| p   Pull-off 
| b   Bend 
| /   Slide up 
| \   Slide down 
| PM  Palm mute 

************************************ 
  

top 5 | der w
top rock'n roll
Outras músicas do artista letras do(a) Der W
Top cifras »Top artistas »
Petaxxon Comunicação Online
Cifras.com.br - Melhor e mais completo site de cifras e tablaturas do Brasil
Mais de 1 milhão de acordes de músicas cadastradas desde 2003
As informações contidas no nosso site são colaborações de seus usuários e podem conter erros, sendo assim, não nos responsabilizamos sobre nenhuma destas.
close
menos
mais
close
Cor dos acordes:

Cor da letra:

 

save
close
close
 
redimensionar