Cifras e Tablaturas
Destruction

Destruction

Total Desaster

Cifras Cancelar Versão de Impressão Print

Destruction - Total Desaster

Tom:

  • 0:00 / 0:00
  			1) Main Riff: "I was born..." 
e|--------------------------------------| 
B|--------------------------------------| 
G|--------------------------------------| 
D|--9--------5-5------9--------7-10-10--| 
A|--7--------3-3------7--------5--8--8--| 
E|----000000-----0000---000000----------| 
...... .... ...... 
 
2) Fill: 4th time ending: 
e|----------------------------------| |---------------| 
B|----------------------------------| |---------------| 
G|----------------------------------| |---------------| 
D|--5--4----5-7---9--------9--------| |-4--5-4--------| 
A|--3--2-5--3-5---7--------7--------| |-2--3-2--------| 
E|-------3----------000000---000000-| |---------3-2-0-| 
...... ...... 
 
3) Chorus: "Never trust the virgin preacher..." 
e|-----------------------------------------------------------------------| 
B|-----------------------------------------------------------------------| 
G|-----------------------------------------------------------------------| 
D|--9---9---9-10--10-9---9---12-10-9-10-9---9---9-10--10-7---7---7-9--9--| 
A|--7-777-777--8---8-7-777-7710--8-7--8-7-777-777--8---8-5-555-555-7--7--| 
E|----..--..-----------..--..-------------..--..-----------..--..--------| 
 
4a) Middle-part: 
e|----------------------------------| 
B|----------------------------------| 
G|----------------------------------| 
D|--4---4---4-5--5-4---4------------| 
A|--2-222-222-3--3-2-222-22----0----| 
E|-------------------------2-3---3--| 
.. .. .. .. 
4b) 
e|--------------------------------| 
B|--------------------------------| 
G|-----------6--7-----------6--7--| 
D|-5---5---5-4--5-5---5---5-4--5--| 
A|-3-333-333------3-333-333-------| 
E|---..--..---------..--..--------| 
 
4b) Solo rhytm: 
e|-----------------------------------------------------------------| 
B|-----------------------------------------------------------------| 
G|-----------------------------------------------------------------| 
D|--9---9---9---9---5---5---5---5---7---7---7---7---9---9-------4--| 
A|--7-777-777-777-773-333-333-333-335-555-555-555-557-777-77----2--| 
E|----------------------------------------------------------2-3----| 
.. .. .. .. .. .. .. .. .. .. .. .. .. .. 
 
 

    	

enviado porenviado por: matrizarrojito
cifra enviadaCorrigida por: sem correções
logo top cifrasComente
ico música do artistaMúsicas deste artista
ico curtiuCurtiu?
ico destaqueDestaque
Petaxxon Comunicação Online

Cifras.com.br - Melhor e mais completo site de cifras e tablaturas do Brasil Mais de 1 milhão de acordes de músicas cadastradas desde 2003
As informações contidas no nosso site são colaborações de seus usuários e podem conter erros, sendo assim, não nos responsabilizamos sobre nenhuma destas.

close
menos
mais
close
Cor dos acordes:

Cor da letra:

close
Alinhar acordes a direita Alinhar acordes a esquerda Alinhar acordes em baixo Alinhar acordes no topo
close
  Mostrar todos os acordes Esconder acordes muito fáceis Esconder acordes fáceis Esconder acordes intermediários
redimensionar
glossário