Cifras e Tablaturas
Devanation

Devanation

Psalm Of The Raven

Cifras Cancelar Versão de Impressão
cifras

Devanation - Psalm Of The Raven

fixar na tela  
Exibindo: vídeo-aula ver clipes redimensionar
  
Intro 

G1 Rhythm 
C#|-----------------------------------------------------------------------------------| 
G#|-----------------------------------------------------------------------------------| 
E |------------------3~--------------------------------3-3-3-3-3-3-3-3-3-3-3-3-3-x----| 
B |-0~---------------3~---------------0~---------------3-3-3-3-3-3-3-3-3-3-3-3-3-x----| 
F#|-0~---------------1~---------------0~---------------1-1-1-1-1-1-1-1-1-1-1-1-1-x----| 
B |-0~--------------------------------0~----------------------------------------------| 
                                                       . . . . . . . . . . . . . 
G2 Lead 
C#|-------------------------------------------------------------------------------------------------| 
G#|-------------------------------------------------------------------------------------------------| 
E |-7--7--7-----------------------------------------7--7--7-----------------------------10-10-10-10-| 
B |----------7--7--7--8--8--8--5--5--5-----------------------7--7--7--8--8--8--5--5--5--------------| 
F#|-------------------------------------8--8--8--8--------------------------------------------------| 
B |-------------------------------------------------------------------------------------------------| 

Main riff 
G1 & G2 
C#|--------------------|----------------------|--------------------|----------------------| 
G#|--------------------|----------------------|--------------------|----------------------| 
E |--------------------|----------------------|--------------------|----------------------| 
B |-------------2------|----------------------|-------------2------|----------------------| 
F#|--------------------|----------------------|--------------------|-------------33-33-33-| 
B |-0-00-0-00-3---00-0-|-0-00-0-00-0-00-00-00-|-0-00-0-00-3---00-0-|-0-00-0-00-0----------| 
      ..   ..     ..       ..   ..   .. .. ..     ..   ..     ..       ..   ..  

Verse Fill 
C#|------------------| 
G#|------------------| 
E |------------------| 
B |-10-8-7-8-7-3-2-3-| 
F#|-10-8-7-8-7-3-2-3-| 
B |-10-8-7-8-7-3-2-3-| 
  PM_________________| 

Verse  
G1 & G2 
C#|---------------------------|---------------------------| 
G#|---------------------------|---------------------------| 
E |---------------------------|---------------------------| 
B |---------------------------|-------------333333--------| 
F#|-0--8--7--7--7--7-7--7---8-|-0--8--7--7--------5555555-| 
B |-0--8--7--7--7--7-7--7---8-|-0--8--7--7----------------| 
                   .                       *trem pick                  

C#|---------------------------|---------------------------| 
G#|---------------------------|---------------------------| 
E |---------------------------|---------------------------| 
B |---------------------------|-------------------555-----| 
F#|-0--8--7--7--7--7-7--7---8-|-0--8--7--7--888888---8888-| 
B |-0--8--7--7--7--7-7--7---8-|-0--8--7--7----------------| 
                   .                       *trem pick 

Pre-Chorus Fill 
G1 & G2 
C#|---------------------------------| 
G#|---------------------------------| 
E |---------------------------------| 
B |-8-8-8-8-8-8-8-8-8-8-8-8-8-8-8-8-| 
F#|-8-8-8-8-8-8-8-8-8-8-8-8-8-8-8-8-| 
B |-8-8-8-8-8-8-8-8-8-8-8-8-8-8-8-8-| 

Chorus 
G1 
C#|--------------------------------------------------------------| 
G#|--------------------------------------------------------------| 
E |-----------------5-5-5----------------------------------------| 
B |-0-0-0-0-0-0-0-0-5-5-5-5--5-5--8-8-8-8-8-8-5-5-7-7----7--7-7--| 
F#|-0-0-0-0-0-0-0-0-3-3-3-5--5-5--8-8-8-8-8-8-5-5-7-7----7--7-7--| 
B |-0-0-0-0-0-0-0-0-------5--5-5--8-8-8-8-8-8-5-5-7-7----7--7-7--| 

G2 
C#|-------------13-13-13-13-------------------------|----------------------------------------------------| 
G#|-15-15-15-15-------------13-13-13-15-15-15-15-15-|----------------------------------------------------| 
E |-------------------------------------------------|-15-15-15-15-15-15-------14-14-14-14-14-14-14-14-14-| 
B |-------------------------------------------------|-------------------17-17----------------------------| 
F#|-------------------------------------------------|----------------------------------------------------| 
B |-------------------------------------------------|----------------------------------------------------| 

Verse 
G1 & G2 
C#|--------------------|----------------------|--------------------|----------------------| 
G#|--------------------|----------------------|--------------------|----------------------| 
E |--------------------|----------------------|--------------------|----------------------| 
B |--------------------|----------------------|--------------------|----------------------| 
F#|-0----0----3-2----0-|-0----0----0----------|-0----0----3-2----0-|-0----0----0-33-33-33-| 
B |-0-00-0-00-3-2-00-0-|-0-00-0-00-0-00-00-00-|-0-00-0-00-3-2-00-0-|-0-00-0-00-0----------| 
      ..   ..     ..       ..   ..   .. .. ..     ..   ..     ..       ..   ..  

Pre-Chorus Fillv2 
G1 & G2 
C#|------------------| 
G#|------------------| 
E |------------------| 
B |-10-8-7-8-7-3-2-3-| 
F#|-10-8-7-8-7-3-2-3-| 
B |-10-8-7-8-7-3-2-3-| 
  PM_________________| 

Chorus 
G1 
C#|--------------------------------------------------------------| 
G#|--------------------------------------------------------------| 
E |-----------------5-5-5----------------------------------------| 
B |-0-0-0-0-0-0-0-0-5-5-5-5--5-5--8-8-8-8-8-8-5-5-7-7----7--7-7--| 
F#|-0-0-0-0-0-0-0-0-3-3-3-5--5-5--8-8-8-8-8-8-5-5-7-7----7--7-7--| 
B |-0-0-0-0-0-0-0-0-------5--5-5--8-8-8-8-8-8-5-5-7-7----7--7-7--| 

G2 
C#|-------------13-13-13-13-------------------------|----------------------------------------------------| 
G#|-15-15-15-15-------------13-13-13-15-15-15-15-15-|----------------------------------------------------| 
E |-------------------------------------------------|-15-15-15-15-15-15-------14-14-14-14-14-14-14-14-14-| 
B |-------------------------------------------------|-------------------17-17----------------------------| 
F#|-------------------------------------------------|----------------------------------------------------| 
B |-------------------------------------------------|----------------------------------------------------| 

Breakdown/Interlude 
G1 & G2 
C#|-------------------------| 
G#|-------------------------| 
E |-------------------------| 
B |-0~----------0~----------| 
F#|-0~-------0--0~-------0--| x2 
B |-0~-------0--0~-------0--| 
             .           . 

G1 & G2 
C#|---------------------------| 
G#|---------------------------| 
E |---------------------------| 
B |---------------------------| 
F#|-0-0--0-0--0--0-0--0-0--0--| x2 
B |-0-0--0-0--0--0-0--0-0--0--| 
  PM__________________________| 


G1 & G2 
C#|-----------------------------------------------------------------| 
G#|-----------------------------------------------------------------| 
E |-----------------------------------------------------------------| 
B |-----------------------------------------------------------------| 
F#|-----------------1111111111111111---------------0000000000000000-| 
B |-0000000033333333----------------000000033333333-----------------| 
*trem pick 

Verse 
G1 & G2 
C#|---------------------------|---------------------------| 
G#|---------------------------|---------------------------| 
E |---------------------------|---------------------------| 
B |---------------------------|-------------333333--------| 
F#|-0--8--7--7--7--7-7--7---8-|-0--8--7--7--------5555555-| 
B |-0--8--7--7--7--7-7--7---8-|-0--8--7--7----------------| 
                   .                       *trem pick                  


C#|---------------------------|---------------------------| 
G#|---------------------------|---------------------------| 
E |---------------------------|---------------------------| 
B |---------------------------|-------------------555-----| 
F#|-0--8--7--7--7--7-7--7---8-|-0--8--7--7--888888---8888-| 
B |-0--8--7--7--7--7-7--7---8-|-0--8--7--7----------------| 
                   .                       *trem pick 
  
Pre-Chorus Fill 
G1 & G2 
C#|---------------------------------| 
G#|---------------------------------| 
E |---------------------------------| 
B |-8-8-8-8-8-8-8-8-8-8-8-8-8-8-8-8-| 
F#|-8-8-8-8-8-8-8-8-8-8-8-8-8-8-8-8-| 
B |-8-8-8-8-8-8-8-8-8-8-8-8-8-8-8-8-| 

Chorus 
G1 
C#|--------------------------------------------------------------| 
G#|--------------------------------------------------------------| 
E |-----------------5-5-5----------------------------------------| 
B |-0-0-0-0-0-0-0-0-5-5-5-5--5-5--8-8-8-8-8-8-5-5-7-7----7--7-7--| 
F#|-0-0-0-0-0-0-0-0-3-3-3-5--5-5--8-8-8-8-8-8-5-5-7-7----7--7-7--| 
B |-0-0-0-0-0-0-0-0-------5--5-5--8-8-8-8-8-8-5-5-7-7----7--7-7--| 

G2 
C#|-------------13-13-13-13-------------------------|----------------------------------------------------| 
G#|-15-15-15-15-------------13-13-13-15-15-15-15-15-|----------------------------------------------------| 
E |-------------------------------------------------|-15-15-15-15-15-15-------14-14-14-14-14-14-14-14-14-| 
B |-------------------------------------------------|-------------------17-17----------------------------| 
F#|-------------------------------------------------|----------------------------------------------------| 
B |-------------------------------------------------|----------------------------------------------------| 

Outro 
G1 & G2 
                               x3 
C#|------------------------------|------------------------| 
G#|------------------------------|------------------------| 
E |------------------------5--8--|------------------------| 
B |------------------------x--x--|------------0-0--1-x----| 
F#|------------------------3--6--|------------0-0--1-x----| 
B |-0-1-0--1---0-0---1---0-------|-0-1-0--1---0-0--1-x----| 


************************************ 
| x   Dead note 
| ~   Vibrato 
| PM  Palm mute  
************************************ 
  

top 5 | devanation
top rock'n roll
Outras músicas do artista letras do(a) Devanation
Top cifras »Top artistas »
Petaxxon Comunicação Online
Cifras.com.br - Melhor e mais completo site de cifras e tablaturas do Brasil
Mais de 1 milhão de acordes de músicas cadastradas desde 2003
As informações contidas no nosso site são colaborações de seus usuários e podem conter erros, sendo assim, não nos responsabilizamos sobre nenhuma destas.
close
menos
mais
close
Cor dos acordes:

Cor da letra:

 

save
close
close
 
redimensionar