Cifras e Tablaturas
Devildriver

Devildriver

Knee Deep

Cifras Cancelar Versão de Impressão Print

Devildriver - Knee Deep

Tom: B

  • 0:00 / 0:00
  			DEVILDRIVER 

KNEE DEEP 

B-F#-B-E-G#-C# 

TABBED BY andherembrace 


0;07 

1 
--------------------------------------------------| 
--------------------------------------------------| 
--------------------------------------------------| 
-0------------------------------------------------| 
-0------------------------------------------------| 
-0------------------------------------------------| 

2 
--------------------------------------------------| 
--------------------------------------------------| 
--------------------------------------------------| 
///-----------------------------------------------| 
-5------------------------------------------------| 
--------------------------------------------------| 


1 
--------------------------------------------------| 
--------------------------------------------------| 
--------------------------------------------------| 
-1----------------------3-------------------------| 
-1----------------------3-------------------------| 
-1----------------------3-------------------------| 

2 
--------------------------------------------------| 
--------------------------------------------------| 
--------------------------------------------------| 
///--------------------///------------------------| 
-6----------------------8-------------------------| 
--------------------------------------------------| 


B 
---------------------------| 
---------------------------| 
---------------------------| 
---------------------------| 
------5--------------------| 
--6-------6~~~~------------| 


1 
-------------------------------------------------------------------| 
-------------------------------------------------------------------| 
-------------------------------------------------------------------| 
-----------------------------_-------------------------------_-----| 
----------^-----------^-----/ \-----------^-----------^-----/ \----| 
-0-3-6-0-3-6-0-3-6-0-3-6-0-3-6-3-0-6-9-0-6-9-0-6-9-0-6-9-0-6-9-6---| 
 * * * *     * * * *     *       * * * *     * * * *     * 
2 
-------------------------------------------------------------------| 
-------------------------------------------------------------------| 
-------------------------------------------------------------------| 
///-------------------------------///------------------------------| 
-6---------------------------------8-------------------------------| 
-------------------------------------------------------------------| 




0:23 


1 
---------------------------| 
---------------------------| 
---------------------------| 
---------------------------| 
------5--------------------| 
--6-------6~~~~------------| 

2 
--------------------------------------------------| 
--------------------------------------------------| 
--------------------------------------------------| 
///-----------------------------------------------| 
-5------------------------------------------------| 
--------------------------------------------------| 


1 
-------------------------------------------------------------------| 
-------------------------------------------------------------------| 
-------------------------------------------------------------------| 
-----------------------------_-------------------------------_-----| 
----------^-----------^-----/ \-----------^-----------^-----/ \----| 
-0-3-6-0-3-6-0-3-6-0-3-6-0-3-6-3-0-6-9-0-6-9-0-6-9-0-6-9-0-6-9-6---| 
 * * * *     * * * *     *       * * * *     * * * *     * 
2 
-------------------------------------------------------------------| 
-------------------------------------------------------------------| 
-------------------------------------------------------------------| 
///-------------------------------///------------------------------| 
-6---------------------------------8-------------------------------| 
-------------------------------------------------------------------| 


---------------------------| 
---------------------------| 
---------------------------| 
---------------------------| 
------5--------------------| 
--6-------6~~~~------------| 



1 
-------------------------------------------------------------| 
-------------------------------------------------------------| 
-------------------------------------------------------------| 
-----------------------------_-------------------------------| 
----------^-----------^-----/ \-----------^------6-5-6-3-----| 
-0-3-6-0-3-6-0-3-6-0-3-6-0-3-6-3-0-6-9-0-6-9-0-6-6---6-3-----| 
 * * * *     * * * *     *       * * * *     * *  
2 
-------------------------------------------------------------| 
-------------------------------------------------------------| 
-------------------------------------------------------------| 
///-------------------------------///------------------------| 
-6---------------------------------8--------------6-5-6-3----| 
--------------------------------------------------6---6-3----| 






0:38 

--------------------------------------------------------------------| 
--------------------------------------------------------------------| 
--------------------------------------------------------------------| 
--------------------------------------------------------------------| 
------------------------------------------------------------------^-| 
-3-3---3-6--3-6--3-5--3-5--3-5--3-6-XXXX-3-6--3-6--3-5-XXXX-3-5--3-5| 
    |     |    |    |    |    |    |RRRR    |    |    |LLLL    | 


---------------------------------------------------| 
---------------------------------------------------| 
---------------------------------------------------| 
---------------------------------------------------| 
----------^-----------^-------------^-----------^--| 
-0-3-6-0-3-6-0-3-6-0-3-6---0-3-5-0-3-5-0-3-5-0-3-5-| 
 * * * *     * * * *       * * * *     * * * *  

----------------------------------------------------| 
----------------------------------------------------| 
----------------------------------------------------| 
----------------------------------------------------| 
----------^-----------^-------------^-----------^---| 
-0-3-6-0-3-6-0-3-6-0-3-6---0-3-5-0-3-5-0-3-5-0-3-5~-| 
 * * * *     * * * *       * * * *     * * * *  


0:53 

------------------------------------------------------------| 
------------------------------------------------------------| 
------------------------------------------------------------| 
------------------------------------------------------------| 
----------^-----------^-----^-----------^-----------^-----^-| 
-0-3-6-0-3-6-0-3-6-0-3-6-0-363-0-3-5-0-3-5-0-3-5-0-3-5-0-353| 
 * * * *     * * * *     *     * * * *     * * * *     * 

------------------------------------------------------------| 
------------------------------------------------------------| 
------------------------------------------------------------| 
------------------------------------------------------------| 
----------^-----------^-----^-----------^-----------^-----^-| 
-0-3-6-0-3-6-0-3-6-0-3-6-0-363-0-3-5-0-3-5-0-3-5-0-3-5-0-353| 
 * * * *     * * * *     *     * * * *     * * * *     * 


-----------------------------------------------| 
-----------------------------------------------| 
-----------------------------------------------| 
-----------------------------------------------| 
-----------------------------------------------| 
-00--0-00--0-00--0-0000-00--0-00--0-00--0-0000-| 
 XX  X XX  X XX  X XXXX XX  X XX  X XX  X XXXX 

--------------------------------------------| 
--------------------------------------------| 
--------------------------------------------| 
--------------------------------------------| 
--------------------------------------------| 
-00--0-00--0-00--0-0000-00--0-00--0-0000000-| 
 XX  X XX  X XX  X XXXX XX  X XX  X XXXXXX 


1:08 


-------------------------------------| 
-------------------------------------| 
-------------------------------------| 
-------------------------------------| 
------0--------3--------0--------3---| 
-0000-0-003600-3---0000-0-003600-3---| 
 ****   ******     ****   ****** 

-------------------------------------| 
-------------------------------------| 
-------------------------------------| 
-------------------------------------| 
------0--------3--------0----------3-| 
-0000-0-003600-3---0000-0-00360030-3-| 
 ****   ******     ****   ****** 


-------------------------------------| 
-------------------------------------| 
-------------------------------------| 
-------------------------------------| 
------0--------3--------0--------3---| 
-0000-0-003300-3---0000-0-003600-3---| 
 ****   ******     ****   ****** 

-------------------------------------| 
-------------------------------------| 
-------------------------------------| 
-------------------------------------| 
------0--------3--------0------5-----| 
-0000-0-003600-3---0000-0-00-6---6-2-| 
 ****   ******     ****   ** 



1:23 


--------------------------------------------------------------------| 
--------------------------------------------------------------------| 
--------------------------------------------------------------------| 
--------------------------------------------------------------------| 
------------------------------------------------------------------^-| 
-3-3---3-6--3-6--3-5--3-5--3-5--3-6-XXXX-3-6--3-6--3-5-XXXX-3-5--3-5| 
    |     |    |    |    |    |    |LLLL    |    |    |RRRR    | 



---------------------------------------------------| 
---------------------------------------------------| 
---------------------------------------------------| 
---------------------------------------------------| 
----------^-----------^-------------^-----------^--| 
-0-3-6-0-3-6-0-3-6-0-3-6---0-3-5-0-3-5-0-3-5-0-3-5-| 
 * * * *     * * * *       * * * *     * * * *  


------------------------------------------------------------| 
------------------------------------------------------------| 
------------------------------------------------------------| 
------------------------------------------------------------| 
----------^-----------^-----^-----------^-----------^-----^-| 
-0-3-6-0-3-6-0-3-6-0-3-6-0-363-0-3-5-0-3-5-0-3-5-0-3-5-0-353| 
 * * * *     * * * *     *     * * * *     * * * *     * 


------------------------------------------------------------| 
------------------------------------------------------------| 
------------------------------------------------------------| 
------------------------------------------------------------| 
----------^-----------^-----^-----------^-----------^-----^-| 
-0-3-6-0-3-6-0-3-6-0-3-6-0-363-0-3-5-0-3-5-0-3-5-0-3-5-0-353| 
 * * * *     * * * *     *     * * * *     * * * *     * 

------------------------------------------------------------| 
------------------------------------------------------------| 
------------------------------------------------------------| 
------------------------------------------------------------| 
----------^-----------^-----^-----------^-----------^-----^-| 
-0-3-6-0-3-6-0-3-6-0-3-6-0-363-0-3-5-0-3-5-0-3-5-0-3-5-0-353| 
 * * * *     * * * *     *     * * * *     * * * *     * 


------------------------------------------------------------| 
------------------------------------------------------------| 
------------------------------------------------------------| 
------------------------------------------------------------| 
----------^-----------^-----^-----------^-----------^-----^-| 
-0-3-6-0-3-6-0-3-6-0-3-6-0-363-0-3-5-0-3-5-0-3-5-0-3-5-0-353| 
 * * * *     * * * *     *     * * * *     * * * *     * 

------------------------------------------------------------| 
------------------------------------------------------------| 
------------------------------------------------------------| 
------------------------------------------------------------| 
----------^-----------^-----^-----------^-----------^-----^-| 
-0-3-6-0-3-6-0-3-6-0-3-6-0-363-0-3-5-0-3-5-0-3-5-0-3-5-0-353| 
 * * * *     * * * *     *     * * * *     * * * *     * 



1:53 


-------------------------------------| 
-------------------------------------| 
-------------------------------------| 
-------------------------------------| 
------0--------3--------0--------3---| 
-0000-0-003600-3---0000-0-003600-3---| 
 ****   ******     ****   ****** 

-------------------------------------| 
-------------------------------------| 
-------------------------------------| 
-------------------------------------| 
------0--------3--------0------5-----| 
-0000-0-003600-3---0000-0-00-6---6-5-| 
 ****   ******     ****   ** 

-------------------------------------| 
-------------------------------------| 
-------------------------------------| 
-------------------------------------| 
------0--------3--------0--------3---| 
-0000-0-003600-3---0000-0-003600-3---| 
 ****   ******     ****   ****** 

-------------------------------------| 
-------------------------------------| 
-------------------------------------| 
-------------------------------------| 
------0--------3--------0------5-----| 
-0000-0-003600-3---0000-0-00-6---6-5-| 
 ****   ******     ****   ** 





2:08 

1 
---)-----------------------------------------------------------| 
-14------------------------------------------------------------| 
-17------------------------------------------------------------| 
---------------------------------------------------------------| 
---------------------------------------------------------------| 
---------------------------------------------------------------| 

2 
---------------------------------------------------------------| 
---------------------------------------------------------------| 
---------------------------------------------------------------| 
---------------------------------------------------------------| 
-----5---------------------------------------------------------| 
-6-------6~~~~~~~---\------------------------------------------| 



-----------------------------------------------| 
-----------------------------------------------| 
-----------------------------------------------| 
-----------------------------------------------| 
-----------------------------------------------| 
-00--0-00--0-00--0-0000-00--0-00--0-00--0-0000-| 
 XX  X XX  X XX  X XXXX XX  X XX  X XX  X XXXX 



1 
---)-----------------------------------------------------------| 
-14------------------------------------------------------------| 
-17------------------------------------------------------------| 
---------------------------------------------------------------| 
---------------------------------------------------------------| 
---------------------------------------------------------------| 

2 
---------------------------------------------------------------| 
---------------------------------------------------------------| 
---------------------------------------------------------------| 
---------------------------------------------------------------| 
-----1---------------------------------------------------------| 
-2-------2~~~~~~~---\------------------------------------------| 



-----------------------------------------------| 
-----------------------------------------------| 
-----------------------------------------------| 
-----------------------------------------------| 
-----------------------------------------------| 
-00--0-00--0-00--0-0000-00--0-00--0-00--0-0000-| 
 XX  X XX  X XX  X XXXX XX  X XX  X XX  X XXXX 



1 
---)-----------------------------------------------------------| 
-14------------------------------------------------------------| 
-17------------------------------------------------------------| 
---------------------------------------------------------------| 
---------------------------------------------------------------| 
---------------------------------------------------------------| 

2 
---------------------------------------------------------------| 
---------------------------------------------------------------| 
---------------------------------------------------------------| 
---------------------------------------------------------------| 
---------------------------------------------------------------| 
-6---8---6~~~~~~~---\------------------------------------------| 



-----------------------------------------------| 
-----------------------------------------------| 
-----------------------------------------------| 
-----------------------------------------------| 
-----------------------------------------------| 
-00--0-00--0-00--0-0000-00--0-00--0-00--0-0000-| 
 XX  X XX  X XX  X XXXX XX  X XX  X XX  X XXXX 

--------------------------------------------| 
--------------------------------------------| 
--------------------------------------------| 
--------------------------------------------| 
--------------------------------------------| 
-00--0-00--0-00--0-0000-00--0-00--0-0000000-| 
 XX  X XX  X XX  X XXXX XX  X XX  X XXXXXXX 




2:34 

-------------------------------------| 
-------------------------------------| 
-------------------------------------| 
-------------------------------------| 
------0--------3--------0--------3---| 
-0000-0-003600-3---0000-0-003600-3---| 
 ****   ******     ****   ****** 

-------------------------------------| 
-------------------------------------| 
-------------------------------------| 
-------------------------------------| 
------0--------3--------0------5-----| 
-0000-0-003600-3---0000-0-00-6---6-5-| 
 ****   ******     ****   ** 


-------------------------------------| 
-------------------------------------| 
-------------------------------------| 
-------------------------------------| 
------0--------3--------0--------3---| 
-0000-0-003600-3---0000-0-003600-3---| 
 ****   ******     ****   ****** 

-------------------------------------| 
-------------------------------------| 
-------------------------------------| 
-------------------------------------| 
------0--------3--------0------5-----| 
-0000-0-003600-3---0000-0-00-6---6-5-| 
 ****   ******     ****   ** 

-------------------------------------| 
-------------------------------------| 
-------------------------------------| 
-------------------------------------| 
------0--------3--------0--------3---| 
-0000-0-003600-3-000000-0-003600-3---| 
 ****   ******   ******   ****** 

---------------------------------------| 
---------------------------------------| 
---------------------------------------| 
---------------------------------------| 
--------0--------3--------0------5-----| 
-000000-0-003600-3-000000-0-00-6---6-5-| 
 ******   ******   ******   ** 


-------------------------------------| 
-------------------------------------| 
-------------------------------------| 
-------------------------------------| 
------0--------3--------0--------3---| 
-00-0-0-003600-3---00-0-0-003600-3---| 
 ** *   ******     ** *   ****** 

-------------------------------------| 
-------------------------------------| 
-------------------------------------| 
-------------------------------------| 
------0--------3--------0------5-----| 
-00-0-0-003600-3---00-0-0-00-6---6-5-| 
 ** *   ******     ** *   ** 



----------------------| 
----------------------| 
----------------------| 
----------------------| 
----------------------| 
-3-3---3-6--3-6--3-5--| 
    |     |    |    | 
    	

enviado porenviado por: IronPower4Ever
cifra enviadaCorrigida por: sem correções
logo top cifrasComente
ico música do artistaMúsicas deste artista
ico curtiuCurtiu?
ico destaqueDestaque
Petaxxon Comunicação Online

Cifras.com.br - Melhor e mais completo site de cifras e tablaturas do Brasil Mais de 1 milhão de acordes de músicas cadastradas desde 2003
As informações contidas no nosso site são colaborações de seus usuários e podem conter erros, sendo assim, não nos responsabilizamos sobre nenhuma destas.

close
menos
mais
close
Cor dos acordes:

Cor da letra:

close
Alinhar acordes a direita Alinhar acordes a esquerda Alinhar acordes em baixo Alinhar acordes no topo
close
  Mostrar todos os acordes Esconder acordes muito fáceis Esconder acordes fáceis Esconder acordes intermediários
redimensionar
glossário