Cifras e Tablaturas
Devin Townsend Project

Devin Townsend Project

Stormbending

Cifras Cancelar Versão de Impressão
cifras

Devin Townsend Project - Stormbending

fixar na tela  
Exibindo: vídeo-aula ver clipes redimensionar
  
Intro/Verse 

C |-----------------------------------------------------------------------------------------------------5p0-| 
G |------------4---4-4-4-4------------4---4-4-4-6~---------------4----4-4-4-4------------4----4-4-4-4p0-----| 
D#|---------------------------------------------------------------------------------------------------------| 
A#|-2----2-2-2-4---4-4-4-4-0----0-0-0-4---4-4-4-6~----2~---2-2-2-4----4-4-4-4-0~---0-0-0-4----4-4-4---------| 
F |-2----2-2-2-------------0----0-0-0-----------------2~---2-2-2--------------0~---0-0-0--------------------| 
C |-2~---2-2-2-------------0~---0-0-0-----------------2~---2-2-2--------------0~---0-0-0--------------------| 


Bridge 

C |-----------------------------------------------------------------| 
G |-----------------------------------------------------------------| 
D#|-----------0---------------0---------------0---------------0-----| 
A#|---------0---------------0---------------0---------------0-------| 
F |---4---------------4---------------4---------------4-------------| 
C |-4---------------4---------------2---------------2---------------| 


Chorus 

C |-----------------------------------------------------------------| 
G |-----------------------------------------------------------------| 
D#|-----------------------------------------------------------------| 
A#|-5-5-5-5-5-5-5-5-5-5-5-5-5-5-5-5-9-9-9-9-9-9-9-9-9-9-9-9-9-9-9-9-| 
F |-5-5-5-5-5-5-5-5-5-5-5-5-5-5-5-5-9-9-9-9-9-9-9-9-9-9-9-9-9-9-9-9-| 
C |-5-5-5-5-5-5-5-5-5-5-5-5-5-5-5-5-9-9-9-9-9-9-9-9-9-9-9-9-9-9-9-9-| 


Rhythm underneath Solo 1 

C |-----------------------------------------------------------------------------| 
G |-----------------------------------------------------------------------------| 
D#|-----------------------------------------------------------------------------| 
A#|-7~-----------------2~-----------------5~-----------------0~-----------------| 
F |-7~-----------------2~-----------------5~-----------------0~-----------------| 
C |-7~-----------------2~-----------------5~-----------------0~-----------------| 

C |----------------------------------------------------------------------------| 
G |----------------------------------------------------------------------------| 
D#|----------------------------------------------------------------------------| 
A#|-7~-----------------2~-----------------5~-----------------8~----------------| 
F |-7~-----------------2~-----------------5~-----------------5~----------------| 
C |-7~-----------------2~-----------------5~-----------------5~----------------| 


Solo 1 (Dave Young) 

C |--------------------------------------------------| 
G |-7p0h2-------9p0h2-------11p0h2-------9p0h2-------| 
D#|-------7p0h2-------7p0h2--------7p0h2-------7p0h2-| 
A#|--------------------------------------------------| 
F |--------------------------------------------------| 
C |--------------------------------------------------|(x2) 

C |--------------------------------------------------| 
G |-6p0h2-------7p0h2-------9p0h2-------7p0h2--------| 
D#|-------7p0h2-------7p0h2-------7p0h2-------7p0h2--| 
A#|--------------------------------------------------| 
F |--------------------------------------------------| 
C |--------------------------------------------------|(x2) 


C |--------------------------------------------------------| 
G |--------------------------------------------------------| 
D#|-10p0h5-------12p0h5--------14p0h5--------12p0h5--------| 
A#|-------12p0h5--------12p0h5--------12p0h5--------12p0h5-| 
F |--------------------------------------------------------| 
C |--------------------------------------------------------|(x2) 


End 1  

  then repeat above 3 sections with End 2 
C |--------------------------------------------------------| 
G |--------------------------------------------------------| 
D#|-9p0h5--------10p0h5--------12p0h5--------10p0h5--------| 
A#|-------12p0h7--------12p0h7--------12p0h7--------12p0h7-| 
F |--------------------------------------------------------| 
C |--------------------------------------------------------| 

C |------------------------------------------------------| 
G |----------------------------7p0h4-9p0h4-11p0h4-12p0h4-| 
D#|-9p0h5-10p0h5-12p0h5-14p0h5---------------------------| 
A#|------------------------------------------------------| 
F |------------------------------------------------------| 
C |------------------------------------------------------| 


End 2 

C |--------------------------------------------------------| 
G |--------------------------------------------------------| 
D#|-10p0h5-------12p0h5--------13p0h5--------12p0h5--------| 
A#|-------12p0h5--------12p0h5--------12p0h5--------12p0h5-| 
F |--------------------------------------------------------| 
C |--------------------------------------------------------| 

C |-------------------------------------------------------| 
G |-------------------------------------------------------| 
D#|-10p0h5-------12p0h5--------7h8p7----------------------| 
A#|-------12p0h5--------12p0h5--------8-7-----------------| 
F |---------------------------------------10-8-7----------| 
C |----------------------------------------------10-8-7-5-| 


Solo 2 

  (Devin Townsend) 
C |------------------------------------------------------------------------------15~-------------| 
G |----------------------------------5b7---5-7p5-7-/9~-------14--12~------15b17~-----15b17~------| 
D#|-/7~------/9~-----9---5~----------------------------------------------------------------------| 
A#|----------------------------------------------------------------------------------------------| 
F |----------------------------------------------------------------------------------------------| 
C |----------------------------------------------------------------------------------------------| 


Outro 

C |------------------------------------------------------------------------------------------| 
G |------------------------------------------------------------------------------------------| 
D#|------------------------------------------------------------------------------------------| 
A#|-9~-----------------2~-----------------9~-----------------5-5-5-5-5-5-5-5-5-5-5-5-5-5-5-5-| 
F |-9~-----------------2~-----------------9~-----------------5-5-5-5-5-5-5-5-5-5-5-5-5-5-5-5-| 
C |-9~-----------------2~-----------------9~-----------------5-5-5-5-5-5-5-5-5-5-5-5-5-5-5-5-| 


C |----------------------------------------------------------------| 
G |----------------------------------------------------------------| 
D#|----------------------------------------------------------------| 
A#|-2~-------2-2-2-2----------------2~-------2-2-2-2---------------| 
F |-2~-------2-2-2-2----------------2~-------2-2-2-2---------------| 
C |-2~-------2-2-2-2----------------2~-------2-2-2-2---------------|(x2) 



************************************ 

| p  Pull-off 
| ~  Vibrato 
| h  Hammer-on 
| b  Bend 
| /  Slide up 
| x  Dead note 

************************************ 
  

top 5 | devin townsend project
top rock'n roll
Outras músicas do artista letras do(a) Devin Townsend Project
Top cifras »Top artistas »
Petaxxon Comunicação Online
Cifras.com.br - Melhor e mais completo site de cifras e tablaturas do Brasil
Mais de 1 milhão de acordes de músicas cadastradas desde 2003
As informações contidas no nosso site são colaborações de seus usuários e podem conter erros, sendo assim, não nos responsabilizamos sobre nenhuma destas.
close
menos
mais
close
Cor dos acordes:

Cor da letra:

 

save
close
close
 
redimensionar