Cifras e Tablaturas
Diiv

Diiv

Incarnate Devil

Cifras Cancelar Versão de Impressão
cifras

Diiv - Incarnate Devil

fixar na tela  
Exibindo: vídeo-aula ver clipes redimensionar
  
Guitar 1 (above) & Guitar 2 (below) 

Intro 
     Cmaj7                       (try using tremelo dives) 
e |----------------------------|----------------------------| 
B |----------------------------|----------------------------| 
G |--4-------------------------|----------------------------| 
D |--5-------------------------|----------------------------| 
A |--3-------------------------|----------------------------| 
E |----------------------------|----------------------------| 
  | 
e |----------------------------|----------------------------| 
B |----------------------------|----------------------------| 
G |----------------------------|----------------------------| 
D |----------------------------|----------------------------| 
A |----------------------------|----------------------------| 
E |----------------------------|----------------------------| 

     D 
e |----------------------------|----------------------------| 
B |--3-------------------------|----------------------------| 
G |--2-------------------------|----------------------------| 
D |--0-------------------------|----------------------------| 
A |----------------------------|----------------------------| 
E |----------------------------|----------------------------| 
  | 
e |----------------------------|----------------------------| 
B |----------------------------|----------------------------| 
G |----------------------------|----------------------------| 
D |----------------------------|----------------------------| 
A |----------------------------|----------------------------| 
E |----------------------------|----------------------------| 

     A                      (repeat three chords until middle 8) 
e |----------------------------|----------------------------| 
B |----------------------------|----------------------------| 
G |--2-------------------------|----------------------------| 
D |--2-------------------------|----------------------------| 
A |--0-------------------------|----------------------------| 
E |----------------------------|----------------------------| 
  | 
e |----------------------------|----------------------------| 
B |----------------------------|----------------------------| 
G |----------------------------|----------------------------| 
D |----------------------------|----------------------------| 
A |----------------------------|----------------------------| 
E |----------------------------|----------------------------| 

Bridge 
e |----------------------------|----------------------------| 
B |----------------------------|----------------------------| 
G |--4-------------------------|----------------------------| 
D |--5-------------------------|----------------------------| 
A |--3-------------------------|----------------------------| 
E |----------------------------|----------------------------| 
  | 
e |----------------------------|----------------------------| 
B |----------------------------|-------------------5/-------| 
G |----------------------------|----------------------------| 
D |----------------------------|----------------------------| 
A |----------------------------|----------------------------| 
E |----------------------------|----------------------------| 


e |----------------------------|----------------------------| 
B |--3-------------------------|----------------------------| 
G |--2-------------------------|----------------------------| 
D |--0-------------------------|----------------------------| 
A |----------------------------|----------------------------| 
E |----------------------------|----------------------------| 
  | 
e |----------------------------|----------------15----------| 
B |--12------------------------|----------13----------15----| 
G |----------------------------|----------------------------| 
D |----------------------------|----------------------------| 
A |----------------------------|----------------------------| 
E |----------------------------|----------------------------| 


e |----------------------------|----------------------------| 
B |----------------------------|----------------------------| 
G |--2-------------------------|----------------------------| 
D |--2-------------------------|----------------------------| 
A |--0-------------------------|----------------------------| 
E |----------------------------|----------------------------| 
  | 
e |----------------------------|----------------------------| 
B |--15------------------------|----------------------------| 
G |----------14------14--------|------------12--------------| 
D |----------------------------|-------------------12-------| 
A |----------------------------|----------------------------| 
E |----------------------------|----------------------------| 


e |----------------------------|----------------------------| 
B |----------------------------|----------------------------| 
G |--4-------------------------|----------------------------| 
D |--5-------------------------|----------------------------| 
A |--3-------------------------|----------------------------| 
E |----------------------------|----------------------------| 
  | 
e |----------------------------|----------------------------| 
B |----------------------------|----------------------------| 
G |----------9------9----------|----------------------------| 
D |--12-------------------9----|--9-------------------------| 
A |----------------------------|-------12-----12-----10-----| 
E |----------------------------|----------------------------| 


e |----------------------------|----------------------------| 
B |--3-------------------------|----------------------------| 
G |--2-------------------------|----------------------------| 
D |--0-------------------------|----------------------------| 
A |----------------------------|----------------------------| 
E |----------------------------|----------------------------| 
  | 
e |----------------------------|----------------------------| 
B |----------------------------|----------------------------| 
G |----------------------------|----------------------------| 
D |----------------------------|----------------------------| 
A |--10-----7------7------9----|--9-----10-----10-----12----| 
E |----------------------------|----------------------------| 


e |----------------------------|----------------------------| 
B |----------------------------|----------------------------| 
G |--2-------------------------|----------------------------| 
D |--2-------------------------|----------------------------| 
A |--0-------------------------|----------------------------| 
E |----------------------------|----------------------------| 
  | 
e |----------------------------|----------------15----------| 
B |--12------------------------|----------13----------15----| 
G |----------------------------|----------------------------| 
D |----------------------------|----------------------------| 
A |----------------------------|----------------------------| 
E |----------------------------|----------------------------| 


e |----------------------------|----------------------------| 
B |----------------------------|----------------------------| 
G |--4-------------------------|----------------------------| 
D |--5-------------------------|----------------------------| 
A |--3-------------------------|----------------------------| 
E |----------------------------|----------------------------| 
  | 
e |----------------------------|----------------------------| 
B |--15------------------------|----------------------------| 
G |----------14------14--------|------------12--------------| 
D |----------------------------|-------------------12-------| 
A |----------------------------|----------------------------| 
E |----------------------------|----------------------------| 


e |----------------------------|----------------------------| 
B |--3-------------------------|----------------------------| 
G |--2-------------------------|----------------------------| 
D |--0-------------------------|----------------------------| 
A |----------------------------|----------------------------| 
E |----------------------------|----------------------------| 
  | 
e |----------------------------|----------------------------| 
B |----------------------------|----------------------------| 
G |----------9------9----------|----------------------------| 
D |--12-------------------9----|--9-------------------------| 
A |----------------------------|-------12-----12-----10-----| 
E |----------------------------|----------------------------| 


e |----------------------------|----------------------------| 
B |----------------------------|----------------------------| 
G |--2-------------------------|----------------------------| 
D |--2-------------------------|----------------------------| 
A |--0-------------------------|----------------------------| 
E |----------------------------|----------------------------| 
  | 
e |----------------------------|----------------------------| 
B |----------------------------|----------------------------| 
G |----------------------------|----------------------------| 
D |----------------------------|----------------------------| 
A |--10-----7------7------9----|--9-----10-----10-----12----| 
E |----------------------------|----------------------------| 

Verse 
     Its     today     and     its     in     a    word 
e |----------------------------|----------------------------| 
B |----------------------------|----------------------------| 
G |--4-------------------------|----------------------------| 
D |--5-------------------------|----------------------------| 
A |--3-------------------------|----------------------------| 
E |----------------------------|----------------------------| 
  | 
e |----------------------------|----------------------------| 
B |----------------------------|----------------------------| 
G |----------------------------|----------------------------| 
D |----------------------------|----------------------------| 
A |--12b-----------------------|----------------------------| 
E |----------------------------|----------------------------| 
      
     I   breathe   and   seethe,     fade    to    zero 
e |----------------------------|----------------------------| 
B |--3-------------------------|----------------------------| 
G |--2-------------------------|----------------------------| 
D |--0-------------------------|----------------------------| 
A |----------------------------|----------------------------| 
E |----------------------------|----------------------------| 
  | 
e |----------------------------|----------------------------| 
B |----------------------------|----------------------------| 
G |----------------------------|----------------------------| 
D |----------------------------|----------------------------| 
A |----------------------------|----------------------------| 
E |----------------------------|----------------------------| 

     I’m     misinformed,       I’m    barely    born 
e |----------------------------|----------------------------| 
B |----------------------------|----------------------------| 
G |--2-------------------------|----------------------------| 
D |--2-------------------------|----------------------------| 
A |--0-------------------------|----------------------------| 
E |----------------------------|----------------------------| 
  | 
e |----------------------------|----------------------------| 
B |----------------------------|----------------------------| 
G |----------------------------|----------------------------| 
D |----------------------------|----------------------------| 
A |----------------------------|----------------------------| 
E |----------------------------|----------------------------| 

     Gone   to   the    void,    with  the  incarnate 
e |----------------------------|----------------------------| 
B |----------------------------|----------------------------| 
G |--4-------------------------|----------------------------| 
D |--5-------------------------|----------------------------| 
A |--3-------------------------|----------------------------| 
E |----------------------------|----------------------------| 
  | 
e |----------------------------|----------------------------| 
B |----------------------------|----------------------------| 
G |----------------------------|----------------------------| 
D |----------------------------|----------------------------| 
A |----------------------------|----------------------------| 
E |----------------------------|----------------------------| 

     devil..                     and   a    talking 
e |----------------------------|----------------------------| 
B |--3-------------------------|----------------------------| 
G |--2-------------------------|----------------------------| 
D |--0-------------------------|----------------------------| 
A |----------------------------|----------------------------| 
E |----------------------------|----------------------------| 
  | 
e |----------------------------|----------------------------| 
B |----------------------------|----------------------------| 
G |----------------------------|----------------------------| 
D |----------------------------|----------------------------| 
A |----------------------------|----------------------------| 
E |----------------------------|----------------------------| 

     snake..                      Here    he    comes 
e |----------------------------|----------------------------| 
B |----------------------------|----------------------------| 
G |--2-------------------------|----------------------------| 
D |--2-------------------------|----------------------------| 
A |--0-------------------------|----------------------------| 
E |----------------------------|----------------------------| 
  | 
e |----------------------------|----------------------------| 
B |----------------------------|----------------------------| 
G |----------------------------|----------------------------| 
D |----------------------------|----------------------------| 
A |----------------------------|----------------------------| 
E |----------------------------|----------------------------| 

        Today,         it's    written    on    my 
e |----------------------------|----------------------------| 
B |----------------------------|----------------------------| 
G |--4-------------------------|----------------------------| 
D |--5-------------------------|----------------------------| 
A |--3-------------------------|----------------------------| 
E |----------------------------|----------------------------| 
  | 
e |----------------------------|----------------------------| 
B |----------------------------|----------------------------| 
G |----------------------------|----------------------------| 
D |----------------------------|----------------------------| 
A |----------------------------|----------------------------| 
E |----------------------------|----------------------------| 

     face.   A  clue.        A   tunnel   you   can 
e |----------------------------|----------------------------| 
B |--3-------------------------|----------------------------| 
G |--2-------------------------|----------------------------| 
D |--0-------------------------|----------------------------| 
A |----------------------------|----------------------------| 
E |----------------------------|----------------------------| 
  | 
e |----------------------------|----------------------------| 
B |----------------------------|----------------------------| 
G |----------------------------|----------------------------| 
D |----------------------------|----------------------------| 
A |----------------------------|----------------------------| 
E |----------------------------|----------------------------| 

     look   right   through. It’ll take some 
e |----------------------------|----------------------------| 
B |----------------------------|----------------------------| 
G |--2-------------------------|----------------------------| 
D |--2-------------------------|----------------------------| 
A |--0-------------------------|----------------------------| 
E |----------------------------|----------------------------| 
  | 
e |----------------------------|----------------------------| 
B |----------------------------|----------------------------| 
G |----------------------------|----------------------------| 
D |----------------------------|----------------------------| 
A |----------------------------|----------------------------| 
E |----------------------------|----------------------------| 

     time  in  line,             With   the   incarnate 
e |----------------------------|----------------------------| 
B |----------------------------|----------------------------| 
G |--4-------------------------|----------------------------| 
D |--5-------------------------|----------------------------| 
A |--3-------------------------|----------------------------| 
E |----------------------------|----------------------------| 
  | 
e |----------------------------|----------------------------| 
B |----------------------------|----------------------------| 
G |----------------------------|----------------------------| 
D |----------------------------|----------------------------| 
A |----------------------------|----------------------------| 
E |----------------------------|----------------------------| 

     devil..                       And   a   talking 
e |----------------------------|----------------------------| 
B |--3-------------------------|----------------------------| 
G |--2-------------------------|----------------------------| 
D |--0-------------------------|----------------------------| 
A |----------------------------|----------------------------| 
E |----------------------------|----------------------------| 
  | 
e |----------------------------|----------------------------| 
B |----------------------------|----------------------------| 
G |----------------------------|----------------------------| 
D |----------------------------|----------------------------| 
A |----------------------------|----------------------------| 
E |----------------------------|----------------------------| 

     snake. 
e |----------------------------|----------------------------| 
B |----------------------------|----------------------------| 
G |--2-------------------------|----------------------------| 
D |--2-------------------------|----------------------------| 
A |--0-------------------------|----------------------------| 
E |----------------------------|----------------------------| 
  | 
e |----------------------------|----------------------------| 
B |----------------------------|----------------------------| 
G |----------------------------|----------------------------| 
D |----------------------------|----------------------------| 
A |----------------------------|----------------------------| 
E |----------------------------|----------------------------| 


e |----------------------------|----------------------------| 
B |----------------------------|----------------------------| 
G |--4-------------------------|----------------------------| 
D |--5-------------------------|----------------------------| 
A |--3-------------------------|----------------------------| 
E |----------------------------|----------------------------| 
  | 
e |----------------------------|----------------------------| 
B |----------------------------|----------------------------| 
G |----------------------------|----------------------------| 
D |----------------------------|----------------------------| 
A |----------------------------|----------------------------| 
E |----------------------------|----------------------------| 


e |----------------------------|----------------------------| 
B |--3-------------------------|----------------------------| 
G |--2-------------------------|----------------------------| 
D |--0-------------------------|----------------------------| 
A |----------------------------|----------------------------| 
E |----------------------------|----------------------------| 
  | 
e |----------------------------|----------------------------| 
B |----------------------------|----------------------------| 
G |----------------------------|----------------------------| 
D |----------------------------|----------------------------| 
A |----------------------------|----------------------------| 
E |----------------------------|----------------------------| 


e |----------------------------|----------------------------| 
B |----------------------------|----------------------------| 
G |--2-------------------------|----------------------------| 
D |--2-------------------------|----------------------------| 
A |--0-------------------------|----------------------------| 
E |----------------------------|----------------------------| 
  | 
e |----------------------------|----------------------------| 
B |----------------------------|----------------------------| 
G |----------------------------|----------------------------| 
D |----------------------------|----------------------------| 
A |----------------------------|----------------------------| 
E |----------------------------|----------------------------| 

Bridge 
e |----------------------------|----------------------------| 
B |----------------------------|----------------------------| 
G |--4-------------------------|----------------------------| 
D |--5-------------------------|----------------------------| 
A |--3-------------------------|----------------------------| 
E |----------------------------|----------------------------| 
  | 
e |----------------------------|----------------15----------| 
B |--12------------------------|----------13----------15----| 
G |----------------------------|----------------------------| 
D |----------------------------|----------------------------| 
A |----------------------------|----------------------------| 
E |----------------------------|----------------------------| 


e |----------------------------|----------------------------| 
B |----------------------------|----------------------------| 
G |--2-------------------------|----------------------------| 
D |--2-------------------------|----------------------------| 
A |--0-------------------------|----------------------------| 
E |----------------------------|----------------------------| 
  | 
e |----------------------------|----------------------------| 
B |--15------------------------|----------------------------| 
G |----------14------14--------|------------12--------------| 
D |----------------------------|-------------------12-------| 
A |----------------------------|----------------------------| 
E |----------------------------|----------------------------| 


e |----------------------------|----------------------------| 
B |----------------------------|----------------------------| 
G |--4-------------------------|----------------------------| 
D |--5-------------------------|----------------------------| 
A |--3-------------------------|----------------------------| 
E |----------------------------|----------------------------| 
  | 
e |----------------------------|----------------------------| 
B |----------------------------|----------------------------| 
G |----------9------9----------|----------------------------| 
D |--12-------------------9----|--9-------------------------| 
A |----------------------------|-------12-----12-----10-----| 
E |----------------------------|----------------------------| 


e |----------------------------|----------------------------| 
B |--3-------------------------|----------------------------| 
G |--2-------------------------|----------------------------| 
D |--0-------------------------|----------------------------| 
A |----------------------------|----------------------------| 
E |----------------------------|----------------------------| 
  | 
e |----------------------------|----------------------------| 
B |----------------------------|----------------------------| 
G |----------------------------|----------------------------| 
D |----------------------------|----------------------------| 
A |--10-----7------7------9----|--9-----10-----10-----12----| 
E |----------------------------|----------------------------| 


e |----------------------------|----------------------------| 
B |----------------------------|----------------------------| 
G |--2-------------------------|----------------------------| 
D |--2-------------------------|----------------------------| 
A |--0-------------------------|----------------------------| 
E |----------------------------|----------------------------| 
  | 
e |----------------------------|----------------15----------| 
B |--12------------------------|----------13----------15----| 
G |----------------------------|----------------------------| 
D |----------------------------|----------------------------| 
A |----------------------------|----------------------------| 
E |----------------------------|----------------------------| 


e |----------------------------|----------------------------| 
B |----------------------------|----------------------------| 
G |--4-------------------------|----------------------------| 
D |--5-------------------------|----------------------------| 
A |--3-------------------------|----------------------------| 
E |----------------------------|----------------------------| 
  | 
e |----------------------------|----------------------------| 
B |--15------------------------|----------------------------| 
G |----------14------14--------|------------12--------------| 
D |----------------------------|-------------------12-------| 
A |----------------------------|----------------------------| 
E |----------------------------|----------------------------| 


e |----------------------------|----------------------------| 
B |--3-------------------------|----------------------------| 
G |--2-------------------------|----------------------------| 
D |--0-------------------------|----------------------------| 
A |----------------------------|----------------------------| 
E |----------------------------|----------------------------| 
  | 
e |----------------------------|----------------------------| 
B |----------------------------|----------------------------| 
G |----------9------9----------|----------------------------| 
D |--12-------------------9----|--9------------------12-----| 
A |----------------------------|-------12-----12------------| 
E |----------------------------|----------------------------| 


e |----------------------------|----------------------------| 
B |--3-------------------------|----------------------------| 
G |--2-------------------------|----------------------------| 
D |--0-------------------------|----------------------------| 
A |----------------------------|----------------------------| 
E |----------------------------|----------------------------| 
  | 
e |----------------------------|----------------------------| 
B |----------------------------|----------------------------| 
G |----------------------------|----------------------------| 
D |--12--------12-----14-------|--14-----12-----12-----14---| 
A |----------------------------|----------------------------| 
E |----------------------------|----------------------------| 


e |----------------------------|----------------------------| 
B |----------------------------|----------------------------| 
G |--2-------------------------|----------------------------| 
D |--2-------------------------|----------------------------| 
A |--0-------------------------|----------------------------| 
E |----------------------------|----------------------------| 
  | 
e |----------------------------|----------------------------| 
B |----------------------------|----------------------------| 
G |---------11-----9------9----|--14-----14-----14-----16---| 
D |----------------------------|----------------------------| 
A |----------------------------|----------------------------| 
E |----------------------------|----------------------------| 


e |----------------------------|----------------------------| 
B |----------------------------|----------------------------| 
G |--4-------------------------|----------------------------| 
D |--5-------------------------|----------------------------| 
A |--3-------------------------|----------------------------| 
E |----------------------------|----------------------------| 
  | 
e |----------------------------|----------------------------| 
B |----------------------------|----------------------------| 
G |---------11-----9------9----|--14-----14-----14-----16---| 
D |----------------------------|----------------------------| 
A |----------------------------|----------------------------| 
E |----------------------------|----------------------------| 


e |----------------------------|----------------------------| 
B |--3-------------------------|----------------------------| 
G |--2-------------------------|----------------------------| 
D |--0-------------------------|----------------------------| 
A |----------------------------|----------------------------| 
E |----------------------------|----------------------------| 
  | 
e |----------------------------|----------------------------| 
B |----------------------------|----------------------------| 
G |---------11-----9------9----|--14-----14-----14-----16---| 
D |----------------------------|----------------------------| 
A |----------------------------|----------------------------| 
E |----------------------------|----------------------------| 


e |----------------------------|----------------------------| 
B |----------------------------|----------------------------| 
G |--2-------------------------|----------------------------| 
D |--2-------------------------|----------------------------| 
A |--0-------------------------|----------------------------| 
E |----------------------------|----------------------------| 
  | 
e |----------------------------|----------------------------| 
B |----------------------------|----------------------------| 
G |---------11-----9------9----|--14-----14-----14-----16---| 
D |----------------------------|----------------------------| 
A |----------------------------|----------------------------| 
E |----------------------------|----------------------------| 

verse 2 
     Its     today     and     its     in     a    word 
e |----------------------------|----------------------------| 
B |----------------------------|----------------------------| 
G |--4-------------------------|----------------------------| 
D |--5-------------------------|----------------------------| 
A |--3-------------------------|----------------------------| 
E |----------------------------|----------------------------| 
  | 
e |----------------------------|----------------------------| 
B |----------------------------|----------------------------| 
G |----------------------------|----------------------------| 
D |----------------------------|----------------------------| 
A |----------------------------|----------------------------| 
E |----------------------------|----------------------------| 
      
     I   breathe   and   seethe,     fade    to    zero 
e |----------------------------|----------------------------| 
B |--3-------------------------|----------------------------| 
G |--2-------------------------|----------------------------| 
D |--0-------------------------|----------------------------| 
A |----------------------------|----------------------------| 
E |----------------------------|----------------------------| 
  | 
e |----------------------------|----------------------------| 
B |----------------------------|----------------------------| 
G |----------------------------|----------------------------| 
D |----------------------------|----------------------------| 
A |----------------------------|----------------------------| 
E |----------------------------|----------------------------| 

     I’m     misinformed,       I’m    barely    born 
e |----------------------------|----------------------------| 
B |----------------------------|----------------------------| 
G |--2-------------------------|----------------------------| 
D |--2-------------------------|----------------------------| 
A |--0-------------------------|----------------------------| 
E |----------------------------|----------------------------| 
  | 
e |----------------------------|----------------------------| 
B |----------------------------|----------------------------| 
G |----------------------------|----------------------------| 
D |----------------------------|----------------------------| 
A |----------------------------|----------------------------| 
E |----------------------------|----------------------------| 

     Gone   to   the    void,    with  the  incarnate 
e |----------------------------|----------------------------| 
B |----------------------------|----------------------------| 
G |--4-------------------------|----------------------------| 
D |--5-------------------------|----------------------------| 
A |--3-------------------------|----------------------------| 
E |----------------------------|----------------------------| 
  | 
e |----------------------------|----------------------------| 
B |----------------------------|----------------------------| 
G |----------------------------|----------------------------| 
D |----------------------------|----------------------------| 
A |----------------------------|----------------------------| 
E |----------------------------|----------------------------| 

     devil..                     and   a    talking 
e |----------------------------|----------------------------| 
B |--3-------------------------|----------------------------| 
G |--2-------------------------|----------------------------| 
D |--0-------------------------|----------------------------| 
A |----------------------------|----------------------------| 
E |----------------------------|----------------------------| 
  | 
e |----------------------------|----------------------------| 
B |----------------------------|----------------------------| 
G |----------------------------|----------------------------| 
D |----------------------------|----------------------------| 
A |----------------------------|----------------------------| 
E |----------------------------|----------------------------| 

     snake..                      Here    he    comes 
e |----------------------------|----------------------------| 
B |----------------------------|----------------------------| 
G |--2-------------------------|----------------------------| 
D |--2-------------------------|----------------------------| 
A |--0-------------------------|----------------------------| 
E |----------------------------|----------------------------| 
  | 
e |----------------------------|----------------------------| 
B |----------------------------|----------------------------| 
G |----------------------------|----------------------------| 
D |----------------------------|----------------------------| 
A |----------------------------|----------------------------| 
E |----------------------------|----------------------------| 

        Today,         it's    written    on    my 
e |----------------------------|----------------------------| 
B |----------------------------|----------------------------| 
G |--4-------------------------|----------------------------| 
D |--5-------------------------|----------------------------| 
A |--3-------------------------|----------------------------| 
E |----------------------------|----------------------------| 
  | 
e |----------------------------|----------------------------| 
B |----------------------------|----------------------------| 
G |----------------------------|----------------------------| 
D |----------------------------|----------------------------| 
A |----------------------------|----------------------------| 
E |----------------------------|----------------------------| 

     face.  A  clue.        A   tunnel   you   can 
e |----------------------------|----------------------------| 
B |--3-------------------------|----------------------------| 
G |--2-------------------------|----------------------------| 
D |--0-------------------------|----------------------------| 
A |----------------------------|----------------------------| 
E |----------------------------|----------------------------| 
  | 
e |----------------------------|----------------------------| 
B |----------------------------|----------------------------| 
G |----------------------------|----------------------------| 
D |----------------------------|----------------------------| 
A |----------------------------|----------------------------| 
E |----------------------------|----------------------------| 

     look   right   through.    It’ll   take   some 
e |----------------------------|----------------------------| 
B |----------------------------|----------------------------| 
G |--2-------------------------|----------------------------| 
D |--2-------------------------|----------------------------| 
A |--0-------------------------|----------------------------| 
E |----------------------------|----------------------------| 
  | 
e |----------------------------|----------------------------| 
B |----------------------------|----------------------------| 
G |----------------------------|----------------------------| 
D |----------------------------|----------------------------| 
A |----------------------------|----------------------------| 
E |----------------------------|----------------------------| 

     time in line,   With   the   incarnate 
e |----------------------------|----------------------------| 
B |----------------------------|----------------------------| 
G |--4-------------------------|----------------------------| 
D |--5-------------------------|----------------------------| 
A |--3-------------------------|----------------------------| 
E |----------------------------|----------------------------| 
  | 
e |----------------------------|----------------------------| 
B |----------------------------|----------------------------| 
G |----------------------------|----------------------------| 
D |----------------------------|----------------------------| 
A |----------------------------|----------------------------| 
E |----------------------------|----------------------------| 

     devil..                     And   a   talking 
e |----------------------------|----------------------------| 
B |--3-------------------------|----------------------------| 
G |--2-------------------------|----------------------------| 
D |--0-------------------------|----------------------------| 
A |----------------------------|----------------------------| 
E |----------------------------|----------------------------| 
  | 
e |----------------------------|----------------------------| 
B |----------------------------|----------------------------| 
G |----------------------------|----------------------------| 
D |----------------------------|----------------------------| 
A |----------------------------|----------------------------| 
E |----------------------------|----------------------------| 

     snake.. 
e |----------------------------|----------------------------| 
B |--1-------------------------|----------------------------| 
G |--2-------------------------|----------------------------| 
D |--3-------------------------|----------------------------| 
A |----------------------------|----------------------------| 
E |----------------------------|----------------------------| 
  | 
e |----------------------------|----------------------------| 
B |----------------------------|----------------------------| 
G |----------------------------|----------------------------| 
D |----------------------------|----------------------------| 
A |----------------------------|----------------------------| 
E |----------------------------|----------------------------| 


Middle eight and final verse 

     E 
e |----------------------------|----------------------------| 
B |--0-------------------------|----------------------------| 
G |--1-------------------------|----------------------------| 
D |--2-------------------------|--10-10-9-----10-10-9-------| 
A |----------------------------|----------------------------| 
E |----------------------------|----------------------------| 
  | 
e |----------------------------|----------------------------| 
B |----------------------------|----------------------------| 
G |----------------------------|----------------------------| 
D |----------------------------|----------------------------| 
A |----------------------------|----------------------------| 
E |----------------------------|----------------------------| 


e |----------------------------|----------------------------| 
B |----------------------------|----------------------------| 
G |-----------9--9--9----------|--9--9--------9--9----------| 
D |--12----9-----------9-------|--------9-----------9-------| 
A |----------------------------|----------------------------| 
E |----------------------------|----------------------------| 
  | 
e |----------------------------|----------------------------| 
B |----------------------------|----------------------------| 
G |----------------------------|----------------------------| 
D |----------------------------|----------------------------| 
A |----------------------------|----------------------------| 
E |----------------------------|----------------------------| 


e |----------------------------|----------------------------| 
B |----------------------------|----------------------------| 
G |--11-------9--9--9----------|--9--9--------9--9----------| 
D |--------9-----------9-------|--------9-----------9-------| 
A |----------------------------|----------------------------| 
E |----------------------------|----------------------------| 
  | 
e |----------------------------|----------------------------| 
B |----------------------------|----------------------------| 
G |----------------------------|----------------------------| 
D |----------------------------|----------------------------| 
A |----------------------------|----------------------------| 
E |----------------------------|----------------------------| 


e |----------------------------|----------------------------| 
B |----------------------------|----------------------------| 
G |-----------9--9--9----------|--9--9--------9--9----------| 
D |--12----9-----------9-------|--------9-----------9-------| 
A |----------------------------|----------------------------| 
E |----------------------------|----------------------------| 
  | 
e |----------------------------|----------------------------| 
B |----------------------------|----------------------------| 
G |----------------------------|----------------------------| 
D |----------------------------|----------------------------| 
A |----------------------------|----------------------------| 
E |----------------------------|----------------------------| 


e |----------------------------|----------------------------| 
B |----------------------------|----------------------------| 
G |--11-------9--9--9----------|--9--9--------9--9----------| 
D |--------9-----------9-------|--------9-----------9-------| 
A |----------------------------|----------------------------| 
E |----------------------------|----------------------------| 
  | 
e |----------------------------|----------------------------| 
B |----------------------------|----------------------------| 
G |----------------------------|----------------------------| 
D |----------------------------|----------------------------| 
A |----------------------------|----------------------------| 
E |----------------------------|----------------------------| 


e |----------------------------|----------------------------| 
B |----------------------------|----------------------------| 
G |--------11----------11------|--------11----------11------| 
D |----------------------------|----------------------------| 
A |--10----------10-10---------|--10-10-------10-10---------| 
E |----------------------------|----------------------------| 
  | 
e |----------------------------|----------------------------| 
B |----------------------------|----------------------------| 
G |----------------------------|----------------------------| 
D |----------------------------|----------------------------| 
A |----------------------------|----------------------------| 
E |----------------------------|----------------------------| 


e |----------------------------|----------------------------| 
B |--------0-----------0-------|--------0-----------0-------| 
G |----------------------------|----------------------------| 
D |--10----------9--9----------|--9--9--------9--9----------| 
A |----------------------------|----------------------------| 
E |----------------------------|----------------------------| 
  | 
e |----------------------------|----------------------------| 
B |----------------------------|----------------------------| 
G |----------------------------|----------------------------| 
D |----------------------------|----------------------------| 
A |----------------------------|----------------------------| 
E |----------------------------|----------------------------| 


e |----------------------------|----------------------------| 
B |----------------------------|----------------------------| 
G |--------11----------11------|--------11----------11------| 
D |----------------------------|----------------------------| 
A |--10----------10-10---------|--10-10-------10-10---------| 
E |----------------------------|----------------------------| 
  | 
e |----------------------------|----------------------------| 
B |----------------------------|----------------------------| 
G |----------------------------|----------------------------| 
D |----------------------------|----------------------------| 
A |----------------------------|----------------------------| 
E |----------------------------|----------------------------| 


e |----------------------------|----------------------------| 
B |--------0-----------0-------|--------0-----------0-------| 
G |----------------------------|----------------------------| 
D |--10----------9--9----------|--9--9--------9--9----------| 
A |----------------------------|----------------------------| 
E |----------------------------|----------------------------| 
  | 
e |----------------------------|----------------------------| 
B |----------------------------|----------------------------| 
G |----------------------------|----------------------------| 
D |----------------------------|----------------------------| 
A |----------------------------|----------------------------| 
E |----------------------------|----------------------------| 


e |----------------------------|----------------------------| 
B |----------------------------|----------------------------| 
G |-----------9--9--9----------|--9--9--------9--9----------| 
D |--12----9-----------9-------|--------9-----------9-------| 
A |----------------------------|----------------------------| 
E |----------------------------|----------------------------| 
  | 
e |----------------------------|----------------------------| 
B |----------------------------|----------------------------| 
G |--9-----------9--9--9--9----|--9--9--9--9--9--9--9--9----| 
D |----------------------------|----------------------------| 
A |----------------------------|----------------------------| 
E |----------------------------|----------------------------| 


e |----------------------------|----------------------------| 
B |----------------------------|----------------------------| 
G |--11-------9--9--9----------|--9--9--------9--9----------| 
D |--------9-----------9-------|--------9-----------9-------| 
A |----------------------------|----------------------------| 
E |----------------------------|----------------------------| 
  | 
e |----------------------------|----------------------------| 
B |----------------------------|----------------------------| 
G |--9--9--9--9--9--9----------|----------------------------| 
D |--------------------10------|--9-------------------------| 
A |----------------------------|----------------------------| 
E |----------------------------|----------------------------| 


e |----------------------------|----------------------------| 
B |----------------------------|----------------------------| 
G |-----------9--9--9----------|--9--9--------9--9----------| 
D |--12----9-----------9-------|--------9-----------9-------| 
A |----------------------------|----------------------------| 
E |----------------------------|----------------------------| 
  | 
e |----------------------------|----------------------------| 
B |----------------------------|----------------------------| 
G |----------------------------|----------------------------| 
D |--12----12-12-12-12-12-12---|--12-12-12-12-12-12-12-12---| 
A |----------------------------|----------------------------| 
E |----------------------------|----------------------------| 


e |----------------------------|----------------------------| 
B |----------------------------|----------------------------| 
G |--11-------9--9--9----------|--9--9--------9--9----------| 
D |--------9-----------9-------|--------9-----------9-------| 
A |----------------------------|----------------------------| 
E |----------------------------|----------------------------| 
  | 
e |----------------------------|----------------------------| 
B |----------------------------|----------------------------| 
G |----------------------------|----------------------------| 
D |----------------------------|----------------------------| 
A |--12-12-12-12-12-12-10------|--7-------------------------| 
E |----------------------------|----------------------------| 


e |----------------------------|----------------------------| 
B |----------------------------|----------------------------| 
G |--------11----------11------|--------11----------11------| 
D |----------------------------|----------------------------| 
A |--10----------10-10---------|--10-10-------10-10---------| 
E |----------------------------|----------------------------| 
  | 
e |----------------------------|----------------------------| 
B |----------------------------|----------------------------| 
G |--9-----9--9--9--9--9--9----|--9--9--9--9--9--9--9--9----| 
D |----------------------------|----------------------------| 
A |----------------------------|----------------------------| 
E |----------------------------|----------------------------| 


e |----------------------------|----------------------------| 
B |--------0-----------0-------|--------0-----------0-------| 
G |----------------------------|----------------------------| 
D |--10----------9--9----------|--9--9--------9--9----------| 
A |----------------------------|----------------------------| 
E |----------------------------|----------------------------| 
  | 
e |----------------------------|----------------------------| 
B |----------------------------|----------------------------| 
G |--9--9--9--9--9--9----------|----------------------------| 
D |--------------------10------|--9-------------------------| 
A |----------------------------|----------------------------| 
E |----------------------------|----------------------------| 


e |----------------------------|----------------------------| 
B |----------------------------|----------------------------| 
G |--------11----------11------|--------11----------11------| 
D |----------------------------|----------------------------| 
A |--10----------10-10---------|--10-10-------10-10---------| 
E |----------------------------|----------------------------| 
  | 
e |----------------------------|----------------------------| 
B |----------------------------|----------------------------| 
G |----------------------------|----------------------------| 
D |--12----12-12-12-12-12-12---|--12-12-12-12-12-12-12-12---| 
A |----------------------------|----------------------------| 
E |----------------------------|----------------------------| 


e |----------------------------|----------------------------| 
B |--------0-----------0-------|--------0-----------0-------| 
G |----------------------------|----------------------------| 
D |--10----------9--9----------|--9--9--------9--9----------| 
A |----------------------------|----------------------------| 
E |----------------------------|----------------------------| 
  | 
e |----------------------------|----------------------------| 
B |----------------------------|----------------------------| 
G |----------------------------|----------------------------| 
D |----------------------------|----------------------------| 
A |--12-12-12-12-12-12-10------|--7-------------------------| 
E |----------------------------|----------------------------| 


e |----------------------------|----------------------------| 
B |----------------------------|----------------------------| 
G |--------11----------11------|--------11----------11------| 
D |----------------------------|----------------------------| 
A |--10----------10-10---------|--10-10-------10-10---------| 
E |----------------------------|----------------------------| 
  | 
e |----------------------------|----------------------------| 
B |----------------------------|----------------------------| 
G |----------------------------|----------------------------| 
D |----------------------------|----------------------------| 
A |----------------------------|----------------------------| 
E |----------------------------|----------------------------| 


e |----------------------------|----------------------------| 
B |--------0-----------0-------|--------0-----------0-------| 
G |----------------------------|----------------------------| 
D |--10----------9--9----------|--9--9--------9--9----------| 
A |----------------------------|----------------------------| 
E |----------------------------|----------------------------| 
  | 
e |----------------------------|----------------------------| 
B |----------------------------|----------------------------| 
G |----------------------------|----------------------------| 
D |----------------------------|----------------------------| 
A |----------------------------|----------------------------| 
E |----------------------------|----------------------------| 


e |----------------------------|----------------------------| 
B |----------------------------|----------------------------| 
G |--------11----------11------|--------11----------11------| 
D |----------------------------|----------------------------| 
A |--10----------10-10---------|--10-10-------10-10---------| 
E |----------------------------|----------------------------| 
  | 
e |----------------------------|----------------------------| 
B |----------------------------|----------------------------| 
G |----------------------------|----------------------------| 
D |----------------------------|----------------------------| 
A |----------------------------|----------------------------| 
E |----------------------------|----------------------------| 


e |----------------------------|----------------------------| 
B |--------0-----------0-------|--------0-----------0-------| 
G |----------------------------|----------------------------| 
D |--10----------9--9----------|--9--9--------9--9----------| 
A |----------------------------|----------------------------| 
E |----------------------------|----------------------------| 
  | 
e |----------------------------|----------------------------| 
B |----------------------------|----------------------------| 
G |----------------------------|----------------------------| 
D |----------------------------|----------------------------| 
A |----------------------------|----------------------------| 
E |----------------------------|----------------------------| 


e |----------------------------|----------------------------| 
B |----------------------------|----------------------------| 
G |-----------9--9--9----------|--9--9--------9--9----------| 
D |--12----9-----------9-------|--------9-----------9-------| 
A |----------------------------|----------------------------| 
E |----------------------------|----------------------------| 
  | 
e |----------------------------|----------------------------| 
B |----------------------------|----------------------------| 
G |----------------------------|----------------------------| 
D |----------------------------|----------------------------| 
A |----------------------------|----------------------------| 
E |----------------------------|----------------------------| 


e |----------------------------|----------------------------| 
B |----------------------------|----------------------------| 
G |--11-------9--9--9----------|--9--9--------9--9----------| 
D |--------9-----------9-------|--------9-----------9-------| 
A |----------------------------|----------------------------| 
E |----------------------------|----------------------------| 
  | 
e |----------------------------|----------------------------| 
B |----------------------------|----------------------------| 
G |----------------------------|----------------------------| 
D |----------------------------|----------------------------| 
A |----------------------------|----------------------------| 
E |----------------------------|----------------------------| 


e |----------------------------|----------------------------| 
B |----------------------------|----------------------------| 
G |-----------9--9--9----------|--9--9--------9--9----------| 
D |--12----9-----------9-------|--------9-----------9-------| 
A |----------------------------|----------------------------| 
E |----------------------------|----------------------------| 
  | 
e |----------------------------|----------------------------| 
B |----------------------------|----------------------------| 
G |----------------------------|----------------------------| 
D |----------------------------|----------------------------| 
A |----------------------------|----------------------------| 
E |----------------------------|----------------------------| 


e |----------------------------|----------------------------| 
B |----------------------------|----------------------------| 
G |--11-------9--9--9----------|--9--9--------9--9----------| 
D |--------9-----------9-------|--------9-----------9-------| 
A |----------------------------|----------------------------| 
E |----------------------------|----------------------------| 
  | 
e |----------------------------|----------------------------| 
B |----------------------------|----------------------------| 
G |----------------------------|----------------------------| 
D |----------------------------|----------------------------| 
A |----------------------------|----------------------------| 
E |----------------------------|----------------------------| 


e |----------------------------|----------------------------| 
B |----------------------------|----------------------------| 
G |--------11----------11------|--------11----------11------| 
D |----------------------------|----------------------------| 
A |--10----------10-10---------|--10-10-------10-10---------| 
E |----------------------------|----------------------------| 
  | 
e |----------------------------|----------------------------| 
B |----------------------------|----------------------------| 
G |----------------------------|----------------------------| 
D |----------------------------|----------------------------| 
A |----------------------------|----------------------------| 
E |----------------------------|----------------------------| 


e |----------------------------|----------------------------| 
B |--------0-----------0-------|--------0-----------0-------| 
G |----------------------------|----------------------------| 
D |--10----------9--9----------|--9--9--------9--9----------| 
A |----------------------------|----------------------------| 
E |----------------------------|----------------------------| 
  | 
e |----------------------------|----------------------------| 
B |----------------------------|----------------------------| 
G |----------------------------|----------------------------| 
D |----------------------------|----------------------------| 
A |----------------------------|----------------------------| 
E |----------------------------|----------------------------| 


e |----------------------------|----------------------------| 
B |----------------------------|----------------------------| 
G |--------11----------11------|--------11----------11------| 
D |----------------------------|----------------------------| 
A |--10----------10-10---------|--10-10-------10-10---------| 
E |----------------------------|----------------------------| 
  | 
e |----------------------------|----------------------------| 
B |----------------------------|----------------------------| 
G |----------------------------|----------------------------| 
D |----------------------------|----------------------------| 
A |----------------------------|----------------------------| 
E |----------------------------|----------------------------| 


e |----------------------------|----------------------------| 
B |--------0-----------0-------|--------0-----------0-------| 
G |----------------------------|----------------------------| 
D |--10----------9--9----------|--9--9--------9--9----------| 
A |----------------------------|----------------------------| 
E |----------------------------|----------------------------| 
  | 
e |----------------------------|----------------------------| 
B |----------------------------|----------------------------| 
G |----------------------------|----------------------------| 
D |----------------------------|----------------------------| 
A |----------------------------|----------------------------| 
E |----------------------------|----------------------------| 

     You   have   my   face,   my   neck   my  waist 
e |----------------------------|----------------------------| 
B |----------------------------|----------------------------| 
G |-----------9--9--9----------|--9--9--------9--9----------| 
D |--12----9-----------9-------|--------9-----------9-------| 
A |----------------------------|----------------------------| 
E |----------------------------|----------------------------| 
  | 
e |----------------------------|----------------------------| 
B |----------------------------|----------------------------| 
G |--9-----9--9--9--9--9--9----|--9--9--9--9--9--9--9--9----| 
D |----------------------------|----------------------------| 
A |----------------------------|----------------------------| 
E |----------------------------|----------------------------| 

     And   a   fucking   saint 
e |----------------------------|----------------------------| 
B |----------------------------|----------------------------| 
G |--11-------9--9--9----------|--9--9--------9--9----------| 
D |--------9-----------9-------|--------9-----------9-------| 
A |----------------------------|----------------------------| 
E |----------------------------|----------------------------| 
  | 
e |----------------------------|----------------------------| 
B |----------------------------|----------------------------| 
G |--9--9--9--9--9--9----------|----------------------------| 
D |--------------------10------|--9-------------------------| 
A |----------------------------|----------------------------| 
E |----------------------------|----------------------------| 

     You   have   my   face,   in   a   rocking   chair 
e |----------------------------|----------------------------| 
B |----------------------------|----------------------------| 
G |-----------9--9--9----------|--9--9--------9--9----------| 
D |--12----9-----------9-------|--------9-----------9-------| 
A |----------------------------|----------------------------| 
E |----------------------------|----------------------------| 
  | 
e |----------------------------|----------------------------| 
B |----------------------------|----------------------------| 
G |----------------------------|----------------------------| 
D |--12----12-12-12-12-12-12---|--12-12-12-12-12-12-12-12---| 
A |----------------------------|----------------------------| 
E |----------------------------|----------------------------| 

     That   stays   in   place 
e |----------------------------|----------------------------| 
B |----------------------------|----------------------------| 
G |--11-------9--9--9----------|--9--9--------9--9----------| 
D |--------9-----------9-------|--------9-----------9-------| 
A |----------------------------|----------------------------| 
E |----------------------------|----------------------------| 
  | 
e |----------------------------|----------------------------| 
B |----------------------------|----------------------------| 
G |----------------------------|----------------------------| 
D |----------------------------|----------------------------| 
A |--12-12-12-12-12-12-10------|--7-------------------------| 
E |----------------------------|----------------------------| 

     You   have   my   face,   my   neck   my  waist 
e |----------------------------|----------------------------| 
B |----------------------------|----------------------------| 
G |-----------9--9--9----------|--9--9--------9--9----------| 
D |--12----9-----------9-------|--------9-----------9-------| 
A |----------------------------|----------------------------| 
E |----------------------------|----------------------------| 
  | 
e |----------------------------|----------------------------| 
B |----------------------------|----------------------------| 
G |--9-----9--9--9--9--9--9----|--9--9--9--9--9--9--9--9----| 
D |----------------------------|----------------------------| 
A |----------------------------|----------------------------| 
E |----------------------------|----------------------------| 

     And   a   fucking   saint 
e |----------------------------|----------------------------| 
B |----------------------------|----------------------------| 
G |--11-------9--9--9----------|--9--9--------9--9----------| 
D |--------9-----------9-------|--------9-----------9-------| 
A |----------------------------|----------------------------| 
E |----------------------------|----------------------------| 
  | 
e |----------------------------|----------------------------| 
B |----------------------------|----------------------------| 
G |--9--9--9--9--9--9----------|----------------------------| 
D |--------------------10------|--9-------------------------| 
A |----------------------------|----------------------------| 
E |----------------------------|----------------------------| 

     You   have   my   face,   in   a   rocking   chair 
e |----------------------------|----------------------------| 
B |----------------------------|----------------------------| 
G |-----------9--9--9----------|--9--9--------9--9----------| 
D |--12----9-----------9-------|--------9-----------9-------| 
A |----------------------------|----------------------------| 
E |----------------------------|----------------------------| 
  | 
e |----------------------------|----------------------------| 
B |----------------------------|----------------------------| 
G |----------------------------|----------------------------| 
D |--12----12-12-12-12-12-12---|--12-12-12-12-12-12-12-12---| 
A |----------------------------|----------------------------| 
E |----------------------------|----------------------------| 

     That   stays   in   place 
e |----------------------------|----------------------------| 
B |----------------------------|----------------------------| 
G |--11-------9--9--9----------|----------------------------| 
D |--------9-----------9-------|----------------------------| 
A |----------------------------|----------------------------| 
E |----------------------------|----------------------------| 
  | 
e |----------------------------|----------------------------| 
B |----------------------------|----------------------------| 
G |----------------------------|----------------------------| 
D |----------------------------|----------------------------| 
A |--12-12-12-12-12-12-10------|--7-------------------------| 
E |----------------------------|----------------------------| 


************************************ 

| /  Slide up 
| h  Hammer-on 
| p  Pull-off 

************************************ 
  

cifra enviadasem correções
enviado porenviada por:deivcavalcanti
top 5 | diiv
top pop music
Outras músicas do artista letras do(a) Diiv
Top cifras »Top artistas »
Petaxxon Comunicação Online
Cifras.com.br - Melhor e mais completo site de cifras e tablaturas do Brasil
Mais de 1 milhão de acordes de músicas cadastradas desde 2003
As informações contidas no nosso site são colaborações de seus usuários e podem conter erros, sendo assim, não nos responsabilizamos sobre nenhuma destas.
close
menos
mais
close
Cor dos acordes:

Cor da letra:

 

save
close
close
 
redimensionar