Cifras e Tablaturas
Diiv

Diiv

Sometime

Cifras Cancelar Versão de Impressão Print

Diiv - Sometime

Tom:

  • 0:00 / 0:00
E|-----------------|-----------------|----------12121212121212-| 
B|-----------------|-----------------|-------------------------| 
G|-55555-7---------|-55555-7-----999-|-55555-7-----------------| 
D|---------777-555-|---------777-----|-------------------------| 
A|-----------------|-----------------|-------------------------| 
E|-----------------|-----------------|-------------------------| 

Chorus 4x 
 
E|-12-------------------------------|-12----------------------13-| 
B|----15-13-13-13--15------------13-|----15-13-13-13--15---------| 
G|---------------------14--12h14----|---------------------14-----| 
D|----------------------------------|----------------------------| 
A|----------------------------------|----------------------------| 
E|----------------------------------|----------------------------| 
 

 2x 

E|-1212121213----------------1212121213151515----------| 
B|-----------151515--------------------------151515\---| (tocado somente 
G|------------------141414-----------------------------|  na versão ao vivo) 
D|-----------------------------------------------------| 
A|-----------------------------------------------------| 
E|-----------------------------------------------------| 
 
Verso 
   (1x)                 (4x) 

E|-8888-88-|-88-77-------------------------------| 
B|---------|-------88-10----------------88-------| Na 4ª vez 
G|---------|--------------9999--9999-77-----9797-| não toque "9797" 
D|---------|-------------------------------------| 
A|---------|-------------------------------------| 
E|---------|-------------------------------------| 

enviado porenviado por: hebealmeida
cifra enviadaCorrigida por: sem correções
logo top cifrasComente
ico música do artistaMúsicas deste artista
ico curtiuCurtiu?
ico destaqueDestaque
Petaxxon Comunicação Online

Cifras.com.br - Melhor e mais completo site de cifras e tablaturas do Brasil Mais de 1 milhão de acordes de músicas cadastradas desde 2003
As informações contidas no nosso site são colaborações de seus usuários e podem conter erros, sendo assim, não nos responsabilizamos sobre nenhuma destas.

close
menos
mais
close
Cor dos acordes:

Cor da letra:

close
Alinhar acordes a direita Alinhar acordes a esquerda Alinhar acordes em baixo Alinhar acordes no topo
close
  Mostrar todos os acordes Esconder acordes muito fáceis Esconder acordes fáceis Esconder acordes intermediários
redimensionar
glossário