Cifras e Tablaturas
Dinosaur Jr.

Dinosaur Jr.

Chunks

Cifras Cancelar Versão de Impressão
cifras

Dinosaur Jr. - Chunks

fixar na tela  
Exibindo: vídeo-aula ver clipes redimensionar

Tom:

A

ver outros tons
  
Verse 
e|----------------|----------------| 
B|----------------|----------------| 
G|----------------|----------------| 
D|----------------|----------------| (x10) 
A|-2--2-2-2-2-2-2-|-5--5---4--4--4-| 
E|-0--0-0-0-0-0-0-|-3--3---2--2--2-| 
  P.M.-----------| 

Bridge 
e|-----------|-----------| 
B|-----------|-----------| 
G|-----------|-----------| 
D|-----------|-----------| (x4) 
A|-2--2-5--5-|-7-7-7-7-7-| 
E|-0--0-3--3-|-5-5-5-5-5-| 

Chorus 
e|-----------|-----------|-----------|-----------| 
B|-----------|-----------|-----------|-----------| 
G|-----------|-----------|-----------|-----------| 
D|-----------|-----------|-----------|-----------| (x2) 
A|-5--5--5-5-|-5--5--5-5-|-3--3--3-3-|-3--3--3-3-| 
E|-3--3--3-3-|-3--3--3-3-|-1--1--1-1-|-1--1--1-1-| 

Bridge       x3                          x3 
e|-------------|-------------|-------------| 
B|o-----------o|-------------|o-----------o| 
G|-------------|-------------|-------------| 
D|-------------|-------------|-------------| 
A|o-2--2-5--4-o|-7-7-7-7-7-7-|o-2--2-5--4-o| 
E|--0--0-3--2--|-5-5-5-5-5-5-|--0--0-3--2--| 

Verse 
e|----------------|----------------| 
B|----------------|----------------| 
G|----------------|----------------| 
D|----------------|----------------| (x4) 
A|-2--2-2-2-2-2-2-|-5--5---4--4--4-| 
E|-0--0-0-0-0-0-0-|-3--3---2--2--2-| 
  P.M.-----------| 

Bridge 
e|-----------|-----------| 
B|-----------|-----------| 
G|-----------|-----------| 
D|-----------|-----------| (x4) 
A|-2--2-5--5-|-7-7-7-7-7-| 
E|-0--0-3--3-|-5-5-5-5-5-| 

Chorus 
e|-----------|-----------|-----------|-----------| 
B|-----------|-----------|-----------|-----------| 
G|-----------|-----------|-----------|-----------| 
D|-----------|-----------|-----------|-----------| (x2) 
A|-5--5--5-5-|-5--5--5-5-|-3--3--3-3-|-3--3--3-3-| 
E|-3--3--3-3-|-3--3--3-3-|-1--1--1-1-|-1--1--1-1-| 

Bridge       x3                          x3 
e|-------------|-------------|-------------| 
B|o-----------o|-------------|o-----------o| 
G|-------------|-------------|-------------| 
D|-------------|-------------|-------------| 
A|o-2--2-5--4-o|-7-7-7-7-7-7-|o-2--2-5--4-o| 
E|--0--0-3--2--|-5-5-5-5-5-5-|--0--0-3--2--| 

Outro 
e|----------------|----------------| 
B|----------------|----------------| 
G|----------------|----------------| 
D|----------------|----------------| 
A|-2--2-2-2-2-2-2-|-5--5---4--4--7-| 
E|-0--0-0-0-0-0-0-|-3--3---2--2--5-| 
  P.M.-----------| 

*********************************** 

|P.M.  Palm mute 

*********************************** 
  

top 5 | dinosaur jr.
top rock'n roll
Outras músicas do artista letras do(a) Dinosaur Jr.
Top cifras »Top artistas »
Petaxxon Comunicação Online
Cifras.com.br - Melhor e mais completo site de cifras e tablaturas do Brasil
Mais de 1 milhão de acordes de músicas cadastradas desde 2003
As informações contidas no nosso site são colaborações de seus usuários e podem conter erros, sendo assim, não nos responsabilizamos sobre nenhuma destas.
close
menos
mais
close
Cor dos acordes:

Cor da letra:

 

save
close
close
 
redimensionar