Cifras e Tablaturas
Dire Straits

Dire Straits

Why Worry Tablatura Verificada

Ano: 1985
Album : Brothers In Arms
Compositor : (Mark Knopfler)

Cifras Cancelar Versão de Impressão
cifras

Dire Straits - Why Worry

fixar na tela  
Exibindo: vídeo-aula ver clipes redimensionar
   


Capo 3 

Intro: 

e|---0h2------------0h2p0---------------------------------------------| 
B|---3----------3---3--------3----------0-x----2--x-------------------| 
G|---2-------2------2-----------2-------0-x----0--x-------------------| 
D|---0-----------------------------0----0-x----2--x-------------------| 
A|---------------------------------------------0--x-------------------| 
E|--------------------------------------2-----------------------------| 

e|---0h2------------0h2p0---------------------------------------------| 
B|---3----------3---3--------3----------0---x---2---------------------| 
G|---2-------2------2-----------2-------0-0-x---0---------------------| 
D|---0-----------------------------0----0---x---2---------------------| 
A|----------------------------------------------0---------------------| 
E|--------------------------------------2-----------------------------| 

Theme: 

e|-------2----------------------------0--0--2-2/3--3--2---------------| 
B|----------------3-----3-------------2--2--3-3/5--5------------------| 
G|---2--------2------2-----2------------------------------------------| 
D|-------0------------------------------------------------------------| 
A|-------------------------------0------------------------------------| 
E|--------------------------------------------------------------------| 

e|-------2----------------------------0--0--2-2/3--3--2---------------| 
B|----------------3-----3-------------2--2--3-3/5--5------------------| 
G|------------2------2-----2------------------------------------------| 
D|-------0------------------------------------------------------------| 
A|-------------------------------0------------------------------------| 
E|--------------------------------------------------------------------| 

e|---5----------------------------3-5-7p4---------------0-----------0-| 
B|---7------7---7-------7-5---3------------5---------0------------0---| 
G|---7---7---7----7---------------------------7---6-------6---7-------| 
D|---0----------------------------------------------------------------| 
A|------------------------------------------------0-------------------| 
E|----------------------------3-------0-----------------------7-------| 

e|------------0------0------------------------------------------------| 
B|---------0-----0----------------------------------------------------| 
G|--7--9--------------------------------------------------------------| 
D|--------------------------------------------------------------------| 
A|--------------------------------------------------------------------| 
E|----9---------------------------------------------------------------| 

Chorus: 

e|------3---2----------------------------3--3--3------2--0----0--2----| 
B|-----------------3-----3-----3---------0------------------3---------| 
G|--2-----------2-----2-----2------------0----------------------------| 
D|----------0----------------------------------------------------0----| 
A|----------------------------------------------------0---------------| 
E|--------------------------------0-3---------------------------------| 

e|----------------------------3-----3----2-------0-----0h2------------| 
B|-----3-----3-----3----------0---0-----------3-----------------------| 
G|--2-----2-----2----2--------0---------------------------------------| 
D|-----------------------------------------------------0--------------| 
A|---------------------------------------0----------------------------| 
E|-----------------------3--------------------------------------------| 

e|---------------------------3-----3--2-----0----2--------------------| 
B|-----3-----3------------------0--------3----------------------------| 
G|--2-----2-----2-----------------------------------------------------| 
D|-----------------------------------------------0--------------------| 
A|------------------------------------0-------------------------------| 
E|---------------------0--3-------------------------------------------| 

e|------------------------3--2---2--------------0h2-0p2h0-------------| 
B|-----3-----3----3-------3--2-----3--------3---3---------------------| 
G|--2-----2-----2---2---0----0-0---------2------2---------------------| 
D|------------------------------------0---------0---------------------| 
A|---------------------------0----------------------------------------| 
E|----------------------3---------------------------------------------| 

e|--------3----2---2-------------0h2--0h2p0------------------------------| 
B|----------3--2-----3-------3---3------------3-----------3----2-------x-| 
G|-----0-------0-2--------2------2---------------2-----0------------0--x-| 
D|-------------2-------0---------0--------------------------------2----x-| 
A|-------------0-----------------------------------------------0-------x-| 
E|--3-----------------------------------------------3--------------------| 



  

top 5 | dire straits
top rock'n roll
Outras músicas do artista letras do(a) Dire Straits
Top cifras »Top artistas »
Petaxxon Comunicação Online
Cifras.com.br - Melhor e mais completo site de cifras e tablaturas do Brasil
Mais de 1 milhão de acordes de músicas cadastradas desde 2003
As informações contidas no nosso site são colaborações de seus usuários e podem conter erros, sendo assim, não nos responsabilizamos sobre nenhuma destas.
close
menos
mais
close
Cor dos acordes:

Cor da letra:

 

save
close
close
 
redimensionar