Cifras e Tablaturas
Disney

Disney

I Can Go The Distance Hercules

Cifras Cancelar Versão de Impressão Print

Disney - I Can Go The Distance Hercules

Tom:

  			

Tuning: Standard 

e|---------------------------------------------------------------------------| 
B|---------------------------------------------------------------------------| 
G|--------2--------4----2---------------------2---------4----2---------------| 
D|------4--------------------4--------------4---------------------4----------| 
A|----------------------0----5-------------------------------0----5----------| 
E|-----------------3------------------------------------3--------------------| 

e|---------------------------------------------------------------------------| 
B|----------------------2----3-----------------------------------------------| 
G|--------2--------4-----------2--------------------------2----4----2--------| 
D|------4--------------------------4----4----5--2-------4----------------4---| 
A|----------------------0----2---0--------------0-------------------0----5---| 
E|-----------------3--------------------3----------------------3-------------| 

e|----------------------------------------------------------2---2----3-0-----| 
B|------3-2-----------------------------------2----3--0--3-------------------| 
G|-----------------4----2------------2---4-----------------------------------| 
D|---------------------------4-----4-----------------------------------------| 
A|----------------------0----2---------------------2-----0-------------0-----| 
E|-----------------3---------------------3----2-----------------3------------| 

e|------2-3--------5-----0---------2--0-2---3-2-0--------2-3----5-----0------| 
B|---------------------3--------------------------------------------3--------| 
G|---------------------------------------------------------------------------| 
D|---------------------------------------------------------------------------| 
A|---------------------------------0--------0---0----------------------------| 
E|-----------------2----------3----------------------3----------2----------3-| 

e|------2--0-2---3-2-0-------2-3---------------------------------------------| 
B|---------------------------------------------------------------------------| 
G|---------------------------------------------------------------------------| 
D|---------------------------------------------------------------------------| 
A|------0--------0---0-------------------------------------------------------| 
E|------------------------3--------------------------------------------------| 

e|------5-----------------0----2---------------------------------------2-2---| 
B|---------3-2-0--------3-------------------------------0------------3-------| 
G|----------------------------------2---0-2-------2---------2------2---------| 
D|----------------------------------------------4----------------4-----------| 
A|-----------------------------2----------------------------0----5-4-2-0-----| 
E|------2---------3-----------------------0-------------3----------------3---| 

e|------3--0-----------------------------------------------------------------| 
B|------------3-0-----3---3--------------------------------------------------| 
G|---------------------------------------------------------------------------| 
D|------------------------0--------------------------------------------------| 
A|---------0-------------------0-----------------------0---------------------| 
E|----------------------------------3-------------3--------------------------| 

 
    	
fixar
fixar inscrever-se

enviado porenviado por: renejunior
cifra enviadaCorrigida por: sem correções
logo top cifrasComente
ico música do artistaMúsicas deste artista
ico curtiuCurtiu?
ico destaqueDestaque
Petaxxon Comunicação Online

Cifras.com.br - Melhor e mais completo site de cifras e tablaturas do Brasil Mais de 1 milhão de acordes de músicas cadastradas desde 2003
As informações contidas no nosso site são colaborações de seus usuários e podem conter erros, sendo assim, não nos responsabilizamos sobre nenhuma destas.

close
menos
mais
close
Cor dos acordes:

Cor da letra:

close
Alinhar acordes a direita Alinhar acordes a esquerda Alinhar acordes em baixo Alinhar acordes no topo
close
  Mostrar todos os acordes Esconder acordes muito fáceis Esconder acordes fáceis Esconder acordes intermediários
redimensionar
glossário