Cifras e Tablaturas
Disturbed

Disturbed

Stricken Tablatura

Ano: 2005
Album : Ten Thousand Fists

Cifras Cancelar Versão de Impressão
cifras

Disturbed - Stricken

fixar na tela  
Exibindo: vídeo-aula ver clipes redimensionar
  Intro  D5 - F5 - D5 - D5 - A#5 - A5 - D5 - Eb5 - F5 - D5  - F5 - G5 - D5 - F5 - G#5  
       D5 - F5 - D5 - D5 - A#5 - A5 - D5 - Eb5 - F5 - D5  - F5 - G5 - D5 - F5 - F5  
       D5 - F5 - D5 - D5 - A#5 - A5 - D5 - Eb5 - F5 - D5  - F5 - G5 - D5 - F5 - G#5 
   F5 - F5 - F5 - F5(9) - F5(9) - F5(9) - F5(10) - F5(10) - A5 - A5 - A5 - A5+ - A5+ - A5+ - A5   

D|-------------------------------------------------------------------|  
A|-------------------------------------------------------------------|  
F|-------------------------------------------------------------------|  
C|--0-5-7---8-7---1-3---3-5---3-6---0-5-7---8-7---1-3---3-5---3-3-3--|  
G|--0-3-5-0-8-7-0-1-3-0-3-5-0-3-6---0-3-5-0-8-7-0-1-3-0-3-5-0-3-3-3--|  
C|--0-----0-8-7-0-1-3-0-3-5-0-3-6---0-----0-8-7-0-1-3-0-3-5-0-3-3-3--|  

D|---------------------------------------------------------------------|  
A|---------------------------------------------------------------------|  
F|--------------------------------------5-5-5-7-7--9-9-9-10-10-10-9-9--|  
C|0-5-7---8-7---1-3---3-5---3-6---3-3-3-3-3-3-3-3--7-7-7--7--7--7-7-7--|  
G|0-3-5-0-8-7-0-1-3-0-3-5-0-3-6---3-3-3-3-3-3-3-3--7-7-7--7--7--7-7-7--|  
C|0-----0-8-7-0-1-3-0-3-5-0-3-6---3-3-3-3-3-3-3-3--7-7-7--7--7--7-7-7--|  


Parte A  
ACORDES  
D5 - F5 - G#5  
D|------------------------------------------------------------|  
A|------------------------------------------------------------|  
F|------------------------------------------------------------|  
C|------------------------------------------------------------|  
G|--0-00-00-00-00-35----0-00-00-0-0350333---0-00-00-00-00-35--|  
C|--0-00-00-00-00-35----0-00-00-0-0350333---0-00-00-00-00-35--|  

ACORDES  
F5 - F5 - F5 - F5(9) - F5(9) - F5(9) - F5(10) - F5(10) - A5 - A5 - A5 - A5+ - A5+ - A5+ - A5   

D|-------------------------------------|  
A|-------------------------------------|  
F|--------5-5-5-7-7--9-9-9-10-10-10-9--|  
C|--3-3-3-3-3-3-3-3--7-7-7--7--7--7-7--|  
G|--3-3-3-3-3-3-3-3--7-7-7--7--7--7-7--|  
C|--3-3-3-3-3-3-3-3--7-7-7--7--7--7-7--|  


Refrão  
D5 - F#5 - A#5 - D5 - F5 - A#5 - C5  
D5   F5    A#5  
F5 - G5 - Eb5  

D|----------------------------------------------------------------|  
A|----------------------------------------------------------------|  
F|----------------------------------------------------------------|  
C|----------------------------------------------------------------|  
G|----------------------------------------------------------------|  
C|----------------------------------------------------------------|  

Pré-Solo  
D5  

D|----------------------------------------------------------------|  
A|----------------------------------------------------------------|  
F|----------------------------------------------------------------|  
C|----------------------------------------------------------------|  
G|----------------------------------------------------------------|  
C|----------------------------------------------------------------|  

Solo  
D|-------------------10-12-12b13r12-10----------------------------|  
A|13b15r13p10-13--10-------------------10-------------------------|  
F|----------------------------------------------------------------|  
C|----------------------------------------------------------------|  
G|----------------------------------------------------------------|  
C|----------------------------------------------------------------|  


D|----------------------------------------------------------------|  
A|-------------------------10-------------10----------10----------|  
F|----10-12-12b13r12-10----10-------------10----------10----------|  
C|/12-------------------12----12-10-12-12----12-10-12----12-10----|  
G|----------------------------------------------------------------|  
C|----------------------------------------------------------------|  

D|------------------------------12-13-12-------------15b17--------|  
A|12b13--12b13--12b13--12b13-10----------13-------13--------------|  
F|12b13--12b13--12b13--12b13-10-------------12-14-----------------|  
C|----------------------------------------------------------------|  
G|----------------------------------------------------------------|  
C|----------------------------------------------------------------|  

D|15-13-15/17-----20b22-20-17--18-17------------------------------|  
A|------------15---------------------18---------------------------|  
F|--------------------------------------17-19b--------------------|  
C|----------------------------------------------------------------|  
G|----------------------------------------------------------------|  
C|----------------------------------------------------------------|  

D|----------------------------------------------------------------|  
A|----------------------------------------------------------------|  
F|19b19b19b19b19b19b19b19b19b19b19b19r--19p17h19~-----------------|  
C|----------------------------------------------------------------|  
G|----------------------------------------------------------------|  
C|----------------------------------------------------------------|  

D|----------------------------------------------------------------|  
A|------------13--------------------------------------------------|  
F|----10-12b14---12-----------------------------------------------|  
C|/12-------------------------------------------------------------|  
G|----------------------------------------------------------------|  
C|----------------------------------------------------------------|  

                             
D|13p10-12p10-------13p10-12p10-------13p10-12p10-------13p10-12p10---|  
A|------------13p10-------------13p10-------------13p10---------------|  
F|--------------------------------------------------------------------|  
C|--------------------------------------------------------------------|  
G|--------------------------------------------------------------------|  
C|--------------------------------------------------------------------|  

D|13p10-12p10--------13p10-15p10-13p10-------15p10-13p10------------|  
A|------------13p10--------------------13p10-------------13p10------|  
F|------------------------------------------------------------------|  
C|------------------------------------------------------------------|  
G|------------------------------------------------------------------|  
C|------------------------------------------------------------------|  

D|15p10-13p10--------15p10-13p10-------15p10-13p10-------15--------|  
A|------------13p10--------------13p10-------------13p10-----------|  
F|-----------------------------------------------------------------|  
C|-----------------------------------------------------------------|  
G|-----------------------------------------------------------------|  
C|-----------------------------------------------------------------|  

D|5-----5-----5---------------------------------------------------|  
A|--6-8---6-8---6-8-------5H6P5-----------------------------------|  
F|--------------------5-7-----------------------------------------|  
C|------------------7---------------------------------------------|  
G|----------------------------------------------------------------|  
C|----------------------------------------------------------------|  

D|----------------------------------------------------------------|  
A|12b15-12-10h12p10/9/10------------------------------------------|  
F|-----------------------13p12p10h12b14r12------------------------|  
C|----------------------------------------------------------------|  
G|----------------------------------------------------------------|  
C|----------------------------------------------------------------|  

D|----------------------------------------------------------------|  
A|------10h11p10----------10h11p10--------------------------------|  
F|10h12----------12p10h12----------12p10/9-10p9-------------------|  
C|----------------------------------------------12p10h12----------|  
G|----------------------------------------------------------------|  
C|----------------------------------------------------------------|  

Último Refrão  
D5 - A#5  
F5 - G5 - Eb5  

Final  

IGUAL A INTRO SÓ SEGURA MAIS O D5 ONDE ESTIVER ZERO ZERO  
D5 - F5 - D5 - A#5 - A5 - Eb5 - F5 - D5 - F5 - G#5  

D|----------------------------------------------------------------|  
A|----------------------------------------------------------------|  
F|----------------------------------------------------------------|  
C|0-3--0-0--8-7-0-1-3-0-0-0-0-3-6---------------------------------|  
G|0-3--0-0--8-7-0-1-3-0-0-0-0-3-6---------------------------------|  
C|0-3--0-0--8-7-0-1-3-0-0-0-0-3-6---------------------------------|  

D5 - F5 - D5 - A#5 - A5 - Eb5 - F5 - D5  
D|----------------------------------------------------------------|  
A|----------------------------------------------------------------|  
F|----------------------------------------------------------------|  
C|0-3--0-0--8-7-0-1-3-0-0-0-0-0-0-0-0-----------------------------|  
G|0-3--0-0--8-7-0-1-3-0-0-0-0-0-0-0-0-----------------------------|  
C|0-3--0-0--8-7-0-1-3-0-0-0-0-0-0-0-0-----------------------------|  



  

cifra enviadacorrigido por:Teusalves
enviado porenviada por:Zuaum
top 5 | disturbed
top
Outras músicas do artista letras do(a) Disturbed
Top cifras »Top artistas »
Petaxxon Comunicação Online
Cifras.com.br - Melhor e mais completo site de cifras e tablaturas do Brasil
Mais de 1 milhão de acordes de músicas cadastradas desde 2003
As informações contidas no nosso site são colaborações de seus usuários e podem conter erros, sendo assim, não nos responsabilizamos sobre nenhuma destas.
close
menos
mais
close
Cor dos acordes:

Cor da letra:

 

save
close
close
 
redimensionar