Cifras e Tablaturas
Dizzy Mizz Lizzy
Cifras Cancelar Versão de Impressão

Dizzy Mizz Lizzy - Frey

Tom: E

  			
(The guitar fades in.) 

 B7(add4) 
|------0-----------0-----|------0-----------0-----| 
|--4-------4---4-------4-|--4-------4---4-------4-| 
|----2---2-------2---2---|----2---2-------2---2---| 
|4-----------4-----------|4-----------4-----------| 
|------------------------|------------------------| 
|------------------------|------------------------| 


(The bass guitar enters.) 

   B7(add4) 
||-------0-----------0-----|------0-----------0-----| 
||o--4-------4---4-------4-|--4-------4---4-------4-| 
||-----2---2-------2---2---|----2---2-------2---2---| 
||-4-----------4-----------|4-----------4-----------| 
||o------------------------|------------------------| 
||-------------------------|------------------------| 

   E6 
  |------0-----------0-----|------0-----------0-----| 
  |--2-------2---2-------2-|--2-------2---2-------2-| 
  |----1---1-------1---1---|----1---1-------1---1---| 
  |2-----------2-----------|2-----------2-----------| 
  |------------------------|------------------------| 
  |------------------------|------------------------| 

   B7(add4) 
  |------0-----------0-----|------0-----------0-----| 
  |--4-------4---4-------4-|--4-------4---4-------4-| 
  |----2---2-------2---2---|----2---2-------2---2---| 
  |4-----------4-----------|4-----------4-----------| 
  |------------------------|------------------------| 
  |------------------------|------------------------| 

   E6 
  |------0-----------0-----|------0-----------0-----| 
  |--2-------2---2-------2-|--2-------2---2-------2-| 
  |----1---1-------1---1---|----1---1-------1---1---| 
  |2-----------2-----------|2-----------2-----------| 
  |------------------------|------------------------| 
  |------------------------|------------------------| 

   G#m7(b5)/D 
  |------4-----------4-----|------4-----------4-----| 
  |--7-------7---7-------7-|--7-------7---7-------7-| 
  |----4---4-------4---4---|----4---4-------4---4---| 
  |0-----------0-----------|0-----------0-----------| 
  |------------------------|------------------------| 
  |------------------------|------------------------| 
 
    	
fixar
fixar inscrever-se

enviado porenviado por: IronPower4Ever
cifra enviadaCorrigida por: sem correções
logo top cifrasComente
ico música do artistaMúsicas deste artista
ico curtiuCurtiu?
ico destaqueDestaque
Petaxxon Comunicação Online

Cifras.com.br - Melhor e mais completo site de cifras e tablaturas do Brasil Mais de 1 milhão de acordes de músicas cadastradas desde 2003
As informações contidas no nosso site são colaborações de seus usuários e podem conter erros, sendo assim, não nos responsabilizamos sobre nenhuma destas.

close
menos
mais
close
Cor dos acordes:

Cor da letra:

close
Alinhar acordes a direita Alinhar acordes a esquerda Alinhar acordes em baixo Alinhar acordes no topo
close
  Mostrar todos os acordes Esconder acordes muito fáceis Esconder acordes fáceis Esconder acordes intermediários
redimensionar
glossário