Cifras e Tablaturas
Dizzy Mizz Lizzy

Dizzy Mizz Lizzy

Terrified In Paradise

Cifras Cancelar Versão de Impressão
cifras

Dizzy Mizz Lizzy - Terrified In Paradise

fixar na tela  
Exibindo: vídeo-aula ver clipes redimensionar
  
Tuning(C G C F A D) 


verse 1 
 Cm                                                Eb/Bb                    F/A 
|------------------------|------------------------|------------------------|-------------------| 
|------------------------|------------------------|------------------------|-------------------| 
|------------------------|------------------------|------------------------|--------12-12-10~--| 
|------------------------|------------------------|------------------------|-------------------| 
|------------------------|------------------------|------------------------|-------------------| 
|12-12-12-12-12-12-12-12-|12-12-12-12-12-12-12-12-|10-10-10-10-10-10-10-10-|9-9-9-9------------| 
                     "Are you gonna get it?                             Are you gonna leave it be? 


|------------------------|------------------------|------------------------|-------------------| 
|------------------------|------------------------|------------------------|-------------------| 
|------------------------|------------------------|------------------------|-------------------| 
|------------------------|------------------------|------------------------|--------10-10-12~--| 
|------------------------|------------------------|------------------------|-------------------| 
|12-12-12-12-12-12-12-12-|12-12-12-12-12-12-12-12-|10-10-10-10-10-10-10-10-|9-9-9-9------------| 
                      Try hard to forget it                             Chaos in chemistry 

 Cm                                                Eb/Bb                    F7 
|------------------------|------------------------|------------------------|-------------------| 
|------------------------|------------------------|------------------------|-------------------| 
|------------------------|------------------------|------------------------|--------12-12-12b~-| 
|------------------------|------------------------|------------------------|-------------------| 
|------------------------|------------------------|------------------------|-------------------| 
|12-12-12-12-12-12-12-12-|12-12-12-12-12-12-12-12-|10-10-10-10-10-10-10-10-|9-9-9-9------------| 
                      I don't really follow                             Greatest story ever told 

                                                   Bb5           F5           Eb5 
|------------------------|------------------------|------------------|----------------| 
|------------------------|------------------------|------------------|----------------| 
|------------------------|------------------------|------------------|----------------| 
|------------------------|------------------------|10-10---------5-5-|--------3-3-----| 
|------------------------|------------------------|10-10---------5-5-|--------3-3-----| 
|12-12-12-12-12-12-12-12-|12-12-12-12-12-12-12-12-|10-10---------5-5-|--------3-3-----| 
                      All I know is that I'm not gonna break, not gonna fall 



Chorus 1 
 Cm                                         Eb/Bb                 F7 
|--------------------|---------------------|---------------------|---------------------| 
|--------------------|---------------------|---------------------|---------------------| 
|----------10--------|---10----------------|-----------10--------|---12------12-14-----| 
|----------10--------|---10----------------|-----------10--------|---12------12-14~----| 
|----10h12--------10h|12-------\10-8-10/12-|-----10h12--------12h|14------14-----------| 
|0-------------------|---------------------|10~------------------|---------------------| 
     Terrified in paradise, Wait a minute        Don't you wanna open your arms?"  
  

cifra enviadasem correções
enviado porenviada por:fernsantana
top 5 | dizzy mizz lizzy
top rock'n roll
Outras músicas do artista letras do(a) Dizzy Mizz Lizzy
Top cifras »Top artistas »
Petaxxon Comunicação Online
Cifras.com.br - Melhor e mais completo site de cifras e tablaturas do Brasil
Mais de 1 milhão de acordes de músicas cadastradas desde 2003
As informações contidas no nosso site são colaborações de seus usuários e podem conter erros, sendo assim, não nos responsabilizamos sobre nenhuma destas.
close
menos
mais
close
Cor dos acordes:

Cor da letra:

 

save
close
close
 
redimensionar