Cifras e Tablaturas
Dj Snake

Dj Snake

Middle

Cifras Cancelar Versão de Impressão
cifras

Dj Snake - Middle

fixar na tela  
Exibindo: vídeo-aula ver clipes redimensionar

Tom:

  
Intro 
e|----------------------------------------------------------------------------| 
B|----------------------------------------------------------------------------| 
G|----------------------------------------------------------------------------| 
D|-9------9------9----9------9------7----9------9------9----9------9------7---| 
A|----------------------------------------------------------------------------| 
E|-8-8-8--8-8-8--8-8--7-7-7--7-7-7--7-7--8-8-8--8-8-8--8-8--7-7-7--7-7-7--7-7-| 

Verse 
e|----------------------------------------------------------------------------| 
B|-0------------------------------------------0------0-----------0-----0------| 
G|-0--0--------0-2-------------------------0--0------0----(0)----0-----0---(0)| 
D|-----------2---------4---4-----4-4-2----------------------------------------| 
A|-3------x--3------x----2----x--2------x-----3---x--3--3--x--3--2--x--2--2-x-| 
E|--------x---------x---------x---------x---------x--------x--------x-------x-| 

e|----------------------------------------------------------------------------| 
B|---0-------------------------------------0---0---(0)----0---0----(0)--------| 
G|---0-0----0-0h2----------------------------------(0)-------------(0)--------| 
D|-------------------4---4-----4-4/9---------------(0)-------------(0)--------| 
A|-2-3----x-3-----x----2----x--2------x-9----x------x-------x-------x---------| 
E|--------x-------x---------x---------x----8-x-8-8--x---8-7-x-7--7--x----7----| 

e|----------------------------------------------------------------------------| 
B|----------------------------------------------------------------------------| 
G|----------------------------------------------------------------------------| 
D|-----9--7--9--7--9--7--9--7---9-------------7h9--7--------------------------| 
A|--------x-----------x-------------10---10--------x--------------------------| 
E|--8-----x--8--------x-----7--------x----7--------x--------------------------| 

e|----------------------------------------------------------------------------| 
B|----------------------------------------------------------------------------| 
G|----------------------------------------------------------------------------| 
D|-----9--7--9--7--9--7--9--7---9-------------7h9--7--------------------------| 
A|--------x-----------x-------------10---10--------x--------------------------| 
E|--8-----x--8--------x-----7--------x----7--------x--------------------------| 

e|----------------------------------------------------------------------------| 
B|----------------------------------------------------------------------------| 
G|----------------------------------------------------------------------------| 
D|-----9--7--9--7--9--7--9--7---9-------------7h9--7------9--9--9--9------9---| 
A|--------x-----------x-------------10---10--------x------x------------x-----x| 
E|--8-----x--8--------x-----7--------x----7--------x---8--x--8---------x-----x| 

e|----------------------------------------------------------------------------| 
B|----------------------------------------------------------------------------| 
G|----------------------------------------------------------------------------| 
D|-9/10\9--9--7--(7)----------------------------------------------------------| 
A|----------------x-------10--10\---------------------------------------------| 
E|---------8------x--7-7-------x----------------------------------------------| 

Chorus 
e|----------------------------------------------------------------------------| 
B|----3-----1p0-----------0---------------------------------------------------| 
G|----0----------2-0---0-------------0-0-0-0--------------0-0-----------------| 
D|----0-----------------------7--7-------------6/9--7\---------6/9--7--5-5h7--| 
A|---------------------5---------5-----5--------------------------------------| 
E|-3-----3---------------------------------0-----------0----0-------7---------| 

e|----------------------------------------------------------------------------| 
B|------------0---------------(0)----------------------3-----(3)--------------| 
G|------------0-0-----0---0--(0h2)--2---------0-0------0-----(0)-------0--(0)-| 
D|---7---5\-------------2-----(0)---0-------0------------------------0----(0)-| 
A|------------3----x--3--------x--------x----------x-------2--x----2-------x--| 
E|-7---7-----------x-----------x--------x----------x----------x------------x--| 

e|----------------------------------------------------------------------------| 
B|--3----------(1)-1--0-----(0)-(0)-------------------------------------------| 
G|--0-----(0)--(0)-0-----2--(0)-(0)-------------------------------------------| 
D|--------------------------(0)-(0)-------------------------------------------| 
A|-----3--------x--3---------x---x--------------------------------------------| 
E|--------------x------------x---x--------------------------------------------| 

Breakdown 
e|----------------------------------------------------------------------------| 
B|-8-8/12-12-------8-8-8/12-12------8-8/12-12------8-8-8/12-12----3/5-3p0-----| 
G|--------(0)---------------(0)------------(0)--------------(0)---------------| 
D|----------------------------------0-----------0-----------------------------| 
A|---------x-----------------x--x-----------x----------------x----------------| 
E|-0-------x---0-------------x--x-----------x----------------x----0-----------| 

e|----------------------0-----------------------------------------------------| 
B|--3--0----0-------------3p0--3---0---0--------------------------------------| 
G|-(0)----2---0-0-------------(0)----2---0-0----------------------------------| 
D|----------------------------------------------------------------------------| 
A|--x-------------x--x--2------x---2----------x-x-----------------------------| 
E|--x--0----------x--x---------x--------------x-x-----------------------------| 

e|----------------------------------------------------------------------------| 
B|-8-8/12--12------8-8-8/12-12------8-8/12-12------8-8-8/12-12----3/5-3p0-----| 
G|--------(0)---------------(0)------------(0)--------------(0)---------------| 
D|----------------------------------0-----------0-----------------------------| 
A|---------x-----------------x--x-----------x----------------x----------------| 
E|-0-------x---0-------------x--x-----------x----------------x----0-----------| 

e|----------------------0-----------------------------------------------------| 
B|--3--0----0-------------3p0--3---0---0--------------------------------------| 
G|-(0)----2---0-0-------------(0)----2---0-0----------------------------------| 
D|----------------------------------------------------------------------------| 
A|--x-------------x--x--2------x---2----------x-x-----------------------------| 
E|--x--0----------x--x---------x--------------x-x-----------------------------| 

e|----------------------------------------------------------------------------| 
B|--0h3-------1-----0--------8-8/12-12------8-8-8/12--12------3/5--3p0--------| 
G|--0----(0)-----------2------------(0)---------------(0)---------------------| 
D|-------(0)-----2-----------0-----------0------------------------------------| 
A|--3-----x---3--------x--x----------x-----------------x--x-------------------| 
E|--------x------------x--x----------x-----------------x--x---0---------------| 

e|------------------------0--------------------------------------------------| 
B|-3--0----0-----------------3p0--3---0---0----------------------------------| 
G|(0)----2----0-0----------------(0)----2----0-0-----------------------------| 
D|---------------------------------------------------------------------------| 
A|-----------------x--x---2-------x---2-----------x--x-----------------------| 
E|----0------------x--x-----------x---------------x--x-----------------------| 

e|---------------------------------------------------------------------------| 
B|--0h3-------1-----0--------8-8/12-12------8-8-8/12--12------3/5--3p0-------| 
G|--0----(0)-----------2------------(0)---------------(0)--------------------| 
D|-------(0)-----2-----------0-----------0-----------------------------------| 
A|--3-----x---3--------x--x----------x-----------------x--x------------------| 
E|--------x------------x--x----------x-----------------x--x---0--------------| 

e|------------------------0--------------------------------------------------| 
B|-3--0----0-----------------3p0--3---0---0----------------------------------| 
G|(0)----2----0-0----------------(0)----2----0-0-----------------------------| 
D|---------------------------------------------------------------------------| 
A|-----------------x--x---2-------x---2-----------x--x-----------------------| 
E|----0------------x--x-----------x---------------x--x-----------------------| 

Verse 
e|----------------------------------------------------------------------------| 
B|-0-0-0-0-0------------------------------------------0------0-----------0----| 
G|-0-0-0-0-0--0--------0-2-------------------------0--0------0----(0)----0----| 
D|-2-2-2-2-----------2---------4---4-----4-4-2--------------------------------| 
A|-3-3-3-3-3------x--3------x----2----x--2------x-----3---x--3--3--x--3--2--x-| 
E|----------------x---------x---------x---------x---------x--------x--------x-| 

e|----------------------------------------------------------------------------| 
B|-0--------0-------------------------------------0---0---(0)----0---0----(0)-| 
G|-0---(0)--0-0----0-0h2----------------------------------(0)-------------(0)-| 
D|--------------------------4---4-----4-4/9---------------(0)-------------(0)-| 
A|-2-2--x-2-3----x-3-----x----2----x--2------x-9----x------x-------x-------x--| 
E|------x--------x-------x---------x---------x----8-x-8-8--x---8-7-x-7--7--x--| 

e|----------------------------------------------------------------------------| 
B|----------------------------------------------------------------------------| 
G|----------------------------------------------------------------------------| 
D|------9--7--9--7--9--7--9--7---9-------------7h9--7-------------------------| 
A|---------x-----------x-------------10---10--------x-------------------------| 
E|-7-8-----x--8--------x-----7--------x----7--------x-------------------------| 

e|----------------------------------------------------------------------------| 
B|----------------------------------------------------------------------------| 
G|----------------------------------------------------------------------------| 
D|-----9--7--9--7--9--7--9--7---9-------------7h9--7--------------------------| 
A|--------x-----------x-------------10---10--------x--------------------------| 
E|--8-----x--8--------x-----7--------x----7--------x--------------------------| 

e|----------------------------------------------------------------------------| 
B|----------------------------------------------------------------------------| 
G|----------------------------------------------------------------------------| 
D|-----9--7--9--7--9--7--9--7---9-------------7h9--7------9--9--9--9------9---| 
A|--------x-----------x-------------10---10--------x------x------------x-----x| 
E|--8-----x--8--------x-----7--------x----7--------x---8--x--8---------x-----x| 

e|----------------------------------------------------------------------------| 
B|----------------------------------------------------------------------------| 
G|----------------------------------------------------------------------------| 
D|-9/10\9--9--7--(7)----------------------------------------------------------| 
A|----------------x-------10--10\---------------------------------------------| 
E|---------8------x--7-7-------x----------------------------------------------| 

Chorus 
e|----------------------------------------------------------------------------| 
B|----3-----1p0-----------0---------------------------------------------------| 
G|----0----------2-0---0-------------0-0-0-0--------------0-0-----------------| 
D|----0-----------------------7--7-------------6/9--7\---------6/9--7--5-5h7--| 
A|---------------------5---------5-----5--------------------------------------| 
E|-3-----3---------------------------------0-----------0----0-------7---------| 

e|----------------------------------------------------------------------------| 
B|------------0---------------(0)----------------------3-----(3)--------------| 
G|------------0-0-----0---0--(0h2)--2---------0-0------0-----(0)-------0--(0)-| 
D|---7---5\-------------2-----(0)---0-------0------------------------0----(0)-| 
A|------------3----x--3--------x--------x----------x-------2--x----2-------x--| 
E|-7---7-----------x-----------x--------x----------x----------x------------x--| 

e|----------------------------------------------------------------------------| 
B|--3----------(1)-1--0-----(0)-(0)-------------------------------------------| 
G|--0-----(0)--(0)-0-----2--(0)-(0)-------------------------------------------| 
D|--------------------------(0)-(0)-------------------------------------------| 
A|-----3--------x--3---------x---x--------------------------------------------| 
E|--------------x------------x---x--------------------------------------------| 

Breakdown 
e|---------------------------------------------------------------------------| 
B|-8-8/12-12-------8-8-8/12-12------8-8/12-12------8-8-8/12-12----3/5-3p0----| 
G|--------(0)---------------(0)------------(0)--------------(0)--------------| 
D|----------------------------------0-----------0----------------------------| 
A|---------x-----------------x--x-----------x----------------x---------------| 
E|-0-------x---0-------------x--x-----------x----------------x----0----------| 

e|----------------------0----------------------------------------------------| 
B|--3--0----0-------------3p0--3---0---0-------------------------------------| 
G|-(0)----2---0-0-------------(0)----2---0-0---------------------------------| 
D|---------------------------------------------------------------------------| 
A|--x-------------x--x--2------x---2----------x-x----------------------------| 
E|--x--0----------x--x---------x--------------x-x----------------------------| 

e|---------------------------------------------------------------------------| 
B|-8-8/12--12------8-8-8/12-12------8-8/12-12------8-8-8/12-12----3/5-3p0----| 
G|--------(0)---------------(0)------------(0)--------------(0)--------------| 
D|----------------------------------0-----------0----------------------------| 
A|---------x-----------------x--x-----------x----------------x---------------| 
E|-0-------x---0-------------x--x-----------x----------------x----0----------| 

e|----------------------0----------------------------------------------------| 
B|--3--0----0-------------3p0--3---0---0-------------------------------------| 
G|-(0)----2---0-0-------------(0)----2---0-0---------------------------------| 
D|---------------------------------------------------------------------------| 
A|--x-------------x--x--2------x---2----------x-x----------------------------| 
E|--x--0----------x--x---------x--------------x-x----------------------------| 

e|---------------------------------------------------------------------------| 
B|--0h3-------1-----0--------8-8/12-12------8-8-8/12--12------3/5--3p0-------| 
G|--0----(0)-----------2------------(0)---------------(0)--------------------| 
D|-------(0)-----2-----------0-----------0-----------------------------------| 
A|--3-----x---3--------x--x----------x-----------------x--x------------------| 
E|--------x------------x--x----------x-----------------x--x---0--------------| 

e|------------------------0--------------------------------------------------| 
B|-3--0----0-----------------3p0--3---0---0----------------------------------| 
G|(0)----2----0-0----------------(0)----2----0-0-----------------------------| 
D|---------------------------------------------------------------------------| 
A|-----------------x--x---2-------x---2-----------x--x-----------------------| 
E|----0------------x--x-----------x---------------x--x-----------------------| 

e|---------------------------------------------------------------------------| 
B|--0h3-------1-----0--------8-8/12-12------8-8-8/12--12------3/5--3p0-------| 
G|--0----(0)-----------2------------(0)---------------(0)--------------------| 
D|-------(0)-----2-----------0-----------0-----------------------------------| 
A|--3-----x---3--------x--x----------x-----------------x--x------------------| 
E|--------x------------x--x----------x-----------------x--x---0--------------| 

e|------------------------0--------------------------------------------------| 
B|-3--0----0-----------------3p0--3---0---0----------------------------------| 
G|(0)----2----0-0----------------(0)----2----0-0-----------------------------| 
D|---------------------------------------------------------------------------| 
A|-----------------x--x---2-------x---2-----------x--x-----------------------| 
E|----0------------x--x-----------x---------------x--x-----------------------| 

Outro 
e|----------------------3-3/7\5----------------------------------------------| 
B|-0h3--<15>-<15>-<15>------------------0-1-0------------0--1-0--------------| 
G|-0----------------------------------0-----------2----0-0----------2--------| 
D|----------------------0---------0------------------------------------------| 
A|---------------------------------------------------------------------------| 
E|-3-------------------------------------------0-----0-0-0--------0---0-0-0--|  
  

top 5 | dj snake
top eletrônica
Outras músicas do artista letras do(a) Dj Snake
2.
Talk
Top cifras »Top artistas »
Petaxxon Comunicação Online
Cifras.com.br - Melhor e mais completo site de cifras e tablaturas do Brasil
Mais de 1 milhão de acordes de músicas cadastradas desde 2003
As informações contidas no nosso site são colaborações de seus usuários e podem conter erros, sendo assim, não nos responsabilizamos sobre nenhuma destas.
close
menos
mais
close
Cor dos acordes:

Cor da letra:

 

save
close
close
 
redimensionar