Cifras e Tablaturas
Doc Watson

Doc Watson

Windy And Warm

Cifras Cancelar Versão de Impressão
cifras

Doc Watson - Windy And Warm

fixar na tela  
Exibindo: vídeo-aula ver clipes redimensionar
  
Intro 
         Am 
e |-----------|-------------| 
B |---------1-|----1--------| 
G |---------2-|----2-----2--| 
D |-----------|----------2--| 
A |-------0---|--0----------| 
E |-0-2-4-----|-------0-----| 

Refrain 1 


   Am                                                        
e |----------------|-------------------|--------------------|--3-------------| 
B |-----1--3-1-----|-3b--3---1---------|-------1----3-1----3/5----5\3--1-----| 
G |--2----------2--|------------2----0-|----2----2-------2--|------------2-0-| 
D |-----2-------2--|-----2---------2---|--------------------|----------------| 
A |--0-------------|-0-----------------|--0-----------------|----------------| 
E |--------0-------|---------0---------|--------------------|0---------------| 

  
   Am                                              Em7      Am 
e |----------------|-------------------|-------------------|-------0--------| 
B |-----1--3-1-----|-3b--3---1---------|-----1-----0-------|------------1---| 
G |--2----------2--|------------2------|---2---2------0---2|----------------| 
D |-----2-------2--|-----2---------2---|-----2----------2--|-----2--------2-| 
A |--0-------------|-0-----------------|-0-----------------|-0--------------| 
E |--------0-------|---------0---------|-------------------|----------0-----| 

 Refrain 1  
  
   Am                                                     E7 
e |----------------|-------------------|-----------------|--3-------------| 
B |-----1--3-1-----|-3b--3---1---------|-----1---3----1-3/5----5\3--1-----| 
G |--2----------2--|------------2----0-|--2----2---2-----|------------2-0-| 
D |-----2-------2--|-----2---------2---|-----------------|----------------| 
A |--0-------------|-0-----------------|--0--------------|----------------| 
E |--------0-------|---------0---------|-----------------|0---------------| 


   Am                                              Em        Am 
e |----------------|-------------------|--------------------|-----0----0-------| 
B |-----1--3-1-----|-3b--3---1---------|-----1----0---------|-----1----1-------| 
G |--2----------2--|------------2--0---|---2---2------0---2-|---2----2---------| 
D |-----2-------2--|-----2---------2---|-----2----------2---|--------------2-2-| 
A |--0-------------|-0-----------------|-0------------------|-0----------------| 
E |--------0-------|---------0---------|--------------------|------------------| 

Refrain2  
                                  
   Am 
e |------------------|----------0-0-|------------------|------------------| 
B |--1---3--5--3h5p3-|-1--0-----1-1-|--1---3--5--3h5p3-|-1----------------| 
G |--2---4--5--4-----|-2--0--2------|--2---4--5--4-----|-2----------------| 
D |------------------|-------2------|------------------|--------------2-2-| 
A |----0-------------|--------------|----0-------------|(0)---(0)-(0)-----| 
E |------------------|--------------|------------------|-------------(0)--| 

                                 
   Am                                    F                        E7 
e |------------------|-----------------|---------1--------1-----|--0---1-0--------| 
B |--1---3--5--3h5p3-|-1--0----1----1--|-------1---1----1---1---|----------3--1-0-| 
G |--2---4--5--4-----|-2--0--2-2--2-2--|-----2-------2--------2-|-----------------| 
D |------------------|-------2----2----|---3--------------------|-----------------| 
A |------------------|-----------------|------------------------|-----------------| 
E |------------------|-----------------|---1--------------------|-0---------------| 


Refrain 1 
   
e |----------------|-------------------|--------------------|--3-------------| 
B |-----1--3-1-----|-3b--3---1---------|-------1----3-1----3/5----5\3--1-----| 
G |--2----------2--|------------2----0-|----2----2-------2--|------------2-0-| 
D |-----2-------2--|-----2---------2---|--------------------|----------------| 
A |--0-------------|-0-----------------|--0-----------------|----------------| 
E |--------0-------|---------0---------|--------------------|0---------------| 


e |----------------|-------------------|--------------------|--------0----| 
B |-----1--3-1----3|-3b--3---1---------|-----1-----0--------|-----------0-| 
G |--2----------2--|------------2--0---|-0h2---2------0---2-|-------------| 
D |-----2-------2--|-----2---------2-2-|-----2----------2---|-----2-------| 
A |--0-------------|-0-----------------|-0------------------|-0------0----| 
E |--------0-------|---------0---------|--------------------|-----------4-| 

Refrain 3 
   
   G                                 Cadd9             (3 pos) 
e |------3-------3-/-5-----3--------|-------0---0-----|-5-----3----5-3---| 
B |----------------|--0-------0-----|-------3-3---1---|---3------------3-| 
G |---0----0---0---|--------------0-|-----0-----------|------------------| 
D |------0-------0-|------------0---|--0h2--------2---|-----5--------5---| 
A |----------------|----------------|--3------3-------|---------3--------| 
E |-3--------3-----|-3--3--3--------|-----------------|-3----------------| 
                                                
    
   F                                     Dm                  E7 
e |------1-------1------|-3-----1-------|-----1--------1-----|-0-1-0-------| 
B |-----------1-----1---|---1-------1---|-------3----3---3---|-------3-1-0-| 
G |---2----2----------2-|-------------2-|---2-----2--------2-|-------------| 
D |------3----------3---|-----3-------3-|-0---0------0---0---|-------------| 
A |---------------------|---------------|--------------------|-------------| 
E |-1---------1---------|-1-------1-----|--------------------|-0-----------| 

Refrain1 
   
e |----------------|-------------------|--------------------|--3-------------| 
B |-----1--3-1-----|-3b--3---1---------|-------1----3-1----3/5----5\3--1-----| 
G |--2----------2--|------------2----0-|----2----2-------2--|------------2-0-| 
D |-----2-------2--|-----2---------2---|--------------------|----------------| 
A |--0-------------|-0-----------------|--0-----------------|----------------| 
E |--------0-------|---------0---------|--------------------|0---------------| 


e |----------------|-------------------|-----------------------|-----0----0-------| 
B |-----1--3-1-----|-3b--3---1---------|-----1-------0---------|-----1----1-------| 
G |--2----------2--|------------2--0---|---2---2---------0---2-|---2----2---------| 
D |-----2-------2--|-----2---------2---|-----2-------------0---|--------------2-2-| 
A |--0-------------|-0-----------------|-0---------------------|-0----------------| 
E |--------0-------|---------0---------|-----------------------|------------------| 
                                   
Refrain2 

e |------------------|----------0-0-|------------------|------------------| 
B |--1---3--5--3h5p3-|-1--0-----1-1-|--1---3--5--3h5p3-|-1----------------| 
G |--2---4--5--4-----|-2--0--2------|--2---4--5--4-----|-2----------------| 
D |------------------|-------2------|------------------|---------------2--| 
A |----0-------------|--------------|----0-------------|(0)---(0)-(0)-----| 
E |------------------|--------------|------------------|--------------(0)-| 
     1 & 2  3  4 
                               

e |------------------|-----------------|---------1--------1-----|--0---1-0---------| 
B |--1---3--5--3h5p3-|-1--0----1----1--|-------1---1----1---1---|----------3--1-0--| 
G |--2---4--5--4-----|-2--0--2-2--2-2--|-----2-------2--------2-|------------------| 
D |------------------|-------2----2----|---3--------------------|------------------| 
A |----0-------------|-----------------|------------------------|------------------| 
E |------------------|-----------------|---1--------------------|-0----------------| 
     1 & 2  3  4 

Refrain1 

e |----------------|-------------------|--------------------|--3-------------| 
B |-----1--3-1-----|-3b--3---1---------|-------1----3-1----3/5----5\3--1-----| 
G |--2----------2--|------------2----0-|----2----2-------2--|------------2-0-| 
D |-----2-------2--|-----2---------2---|--------------------|----------------| 
A |--0-------------|-0-----------------|--0-----------------|----------------| 
E |--------0-------|---------0---------|--------------------|0---------------| 


e |----------------|-------------------|-------------------| 
B |-----1--3-1----3|-3b--3---1---------|-----1-----0-------| 
G |--2----------2--|------------2--0---|-2-----2------0---2| 
D |-----2-------2--|-----2---------2-2-|-----2----------0--| 
A |--0-------------|-0-----------------|-0-----------------| 
E |--------0-------|---------0---------|-----------0-------| 

Refrain 4 
             
   Am           A             A7             A 
e |------------|----5----0---|-3-2----------|---5----0----| 
B |------1----1/2----------2-|-----5---2-0-1/2----------2-| 
G |------2----1/2------------|-------------1/2------------| 
D |----2---2--1/2---2------2-|-----2-------1/2--2-------2-| 
A |-0----------|0------0-----|-0-------0----|0-----0------| 
E |------------|-------------|--------------|-------------| 

   A                          A7               E 
e |-3p2------------|----5------|-3-2----------2-|------0----0---| 
B |-----5--2--5---1/2----------|-----5-2--5-----|---------3-----| 
G |---------------1/2--------2-|----------------|---1-----------| 
D |--------2------1/2---2----2-|-----2--------2-|------2------2-| 
A |-0---------0----|0------0---|-0--------0-----|---------2-----| 
E |----------------|-----------|----------------|-0-------------| 

   E7b9               A                                   D7/F#          
e |-3-------0-------|------0------0----|-5-----5----0----|--------------------| 
B |----3--------3-0-|---2----2---------|---2-------------|-----0--1------1----| 
G |-----------------|-----------2------|-----------------|-0h2------0--2------| 
D |----2--------2---|------2---------2-|-----2---------2-|--------0-----------| 
A |-----------------|-0---------0------|-0--------0------|-------------0------| 
E |-0-------0-------|------------------|-----------------|-2----------------2-| 


e |----0-------------|------------|------------| 
B |-0h1--1---0----1--|------------|-3----------| 
G |------------2-----|-2----------|------------| 
D |----------0-------|----------0-|------------| 
A |------0--------0--|-0--2--4----|------------| 
E |-2----------------|------------|-0--0--2--4-| 

Refrain1 outro 

   Am                                                     E7 
e |----------------|---0---------------|--------------------|--3-------------| 
B |-----1--3-1-----|-3b--3---1---------|-------1----3-1----3/5----5\3--1-----| 
G |--2----------2--|------------2----0-|----2----2-------2--|------------2-0-| 
D |-----2-------2--|-----2---------2---|--------------------|----------------| 
A |--------0-------|---------0---------|-0------------------|----------------| 
E |--0-------------|-0-----------------|--------------------|0---------------| 


   Am                                              Em7      Am 
e |----------------|-------------------|------------------|-----------------| 
B |-----1--3-1-----|-3b--3---1---------|-----1---0--------|-----1-----1--0--| 
G |--2----------2--|------------2------|--2---------0---2-|-----2----------0| 
D |-----2-------2--|-----2---------2---|-----2--------2---|-----2--------2--| 
A |--------0-------|---------0---------|-0----------------|-0---------------| 
E |--0-------------|-0-----------------|-------------- ---|---------0-------| 

                               
e |----------------|---------------|----------------------0-| 
B |-----1--0-------|---------------|-----1--0-------------1-| 
G |-2--------0----2|---------------|-0h2------0----------2--| 
D |-----2-------2--|------2------2-|-----2-------0h2----2---| 
A |-0--------------|--0------------|-0-----------------0----| 
E |--------0-------|----------0----|--------0---------------| 


********************************************************** 
 (#)      e.g. (0) played by bass -optionally add 
 h        hammer on 
 p        pull off 
 b        bend (all 1/4 tone) 
/         slide up 

 1 & etc count on some bars 
  

cifra enviadasem correções
enviado porenviada por:IronPower4Ever
top 5 | doc watson
top country
Outras músicas do artista letras do(a) Doc Watson
Top cifras »Top artistas »
Petaxxon Comunicação Online
Cifras.com.br - Melhor e mais completo site de cifras e tablaturas do Brasil
Mais de 1 milhão de acordes de músicas cadastradas desde 2003
As informações contidas no nosso site são colaborações de seus usuários e podem conter erros, sendo assim, não nos responsabilizamos sobre nenhuma destas.
close
menos
mais
close
Cor dos acordes:

Cor da letra:

 

save
close
close
 
redimensionar