Cifras e Tablaturas
Cifras Cancelar Versão de Impressão
cifras

Dodie Clark - She

fixar na tela  
Exibindo: vídeo-aula ver clipes redimensionar

Tom:

D

ver outros tons
  
Verse 

D |------------------------------------------| 
A |------------------------------------------| 
D |--0------------------------------------5--| 
F#|--0------------------------------------5--| 
A |--0------------------------------------5--| 
D |-0------------------------------------5---| 
    Am I allowed ... to look at her like that... 
D |---------------------------------------------------| 
A |---------------------------------------------------| 
D |--0---------------------------------------------5--| 
F#|--0---------------------------------------------5--| 
A |--0---------------------------------------------5--| 
D |-0---------------------------------------------5---| 
    Could I be wrong ...but she's just so nice to look at... 


Chorus 

D |-------------------------------------------------------------------------------| 
A |-------------------------------------------------------------------------------| 
D |--8---------------0--------------5---------------------------------------------| 
F#|--9---------------7--------------5---------------------------------------------| 
A |--9---------------7--------------5---------------------------------------------| 
D |-9---------------7--------------5----------------------------------------------| 
    She smells like lemongrass and sleep 

D |-------------------------------------------------------------------------------| 
A |-------------------------------------------------------------------------------| 
D |--8---------------0--------------5---------------------------------------------| 
F#|--9---------------7--------------5---------------------------------------------| 
A |--9---------------7--------------5---------------------------------------------| 
D |-9---------------7--------------5----------------------------------------------| 
    She tastes like apple juice and peach 

D |---------------------------------------------------------------------------------| 
A |---------------------------------------------------------------------------------| 
D |--8---------------0----------------5---------------------------------------------| 
F#|--9---------------7---0------------5---------------------------------------------| 
A |--9---------------7---4------------5---------------------------------------------| 
D |-9---------------7---4------------5----------------------------------------------| 
    You would find her in a polaroid picture 

D |-------------------------------------------------------------------------------| 
A |-------------------------------------------------------------------------------| 
D |---7-----------------------------5---------------------------------------------| 
F#|---7-----------------------------5---------------------------------------------| 
A |---7-----------------------------5---------------------------------------------| 
D |--7-----------------------------5----------------------------------------------| 
     And she...means everything to me... 


Verse 

D |------------------------------------------| 
A |------------------------------------------| 
D |--0------------------------------------5--| 
F#|--0------------------------------------5--| 
A |--0------------------------------------5--| 
D |-0------------------------------------5---| 
    I'd never tell... No I'd never say a word... 
D |---------------------------------------------------| 
A |---------------------------------------------------| 
D |--0---------------------------------------------5--| 
F#|--0---------------------------------------------5--| 
A |--0---------------------------------------------5--| 
D |-0---------------------------------------------5---| 
   And oh it aches... But it feels oddly good to hurt... 


Chorus 

D |-------------------------------------------------------------------------------| 
A |-------------------------------------------------------------------------------| 
D |--8---------------0--------------5---------------------------------------------| 
F#|--9---------------7--------------5---------------------------------------------| 
A |--9---------------7--------------5---------------------------------------------| 
D |-9---------------7--------------5----------------------------------------------| 
    She smells like lemongrass and sleep 


D |-------------------------------------------------------------------------------| 
A |-------------------------------------------------------------------------------| 
D |--8---------------0--------------5---------------------------------------------| 
F#|--9---------------7--------------5---------------------------------------------| 
A |--9---------------7--------------5---------------------------------------------| 
D |-9---------------7--------------5----------------------------------------------| 
    She tastes like apple juice and peach 


D |---------------------------------------------------------------------------------| 
A |---------------------------------------------------------------------------------| 
D |--8---------------0----------------5---------------------------------------------| 
F#|--9---------------7---0------------5---------------------------------------------| 
A |--9---------------7---4------------5---------------------------------------------| 
D |-9---------------7---4------------5----------------------------------------------| 
    You would find her in a polaroid picture 

D |-------------------------------------------------------------------------------| 
A |-------------------------------------------------------------------------------| 
D |---7-----------------------------5---------------------------------------------| 
F#|---7-----------------------------5---------------------------------------------| 
A |---7-----------------------------5---------------------------------------------| 
D |--7-----------------------------5----------------------------------------------| 
     And she...means everything to me... 


Bridge 

D |------------------------------------------| 
A |------------------------------------------| 
D |--0------------------------------------5--| 
F#|--0------------------------------------5--| 
A |--0------------------------------------5--| 
D |-0------------------------------------5---| 
    Ohhhhhh....                          Ohhhhhh... 

D |-------------------------------------------------------------------------------| 
A |-------------------------------------------------------------------------------| 
D |--8---------------0--------------5---------------------------------------------| 
F#|--9---------------7--------------5---------------------------------------------| 
A |--9---------------7--------------5---------------------------------------------| 
D |-9---------------7--------------5----------------------------------------------| 
   and I'll        be okay         Admiring from afar 

D |-------------------------------------------------------------------------------| 
A |-------------------------------------------------------------------------------| 
D |--8---------------0--------------5---------------------------------------------| 
F#|--9---------------7--------------5---------------------------------------------| 
A |--9---------------7--------------5---------------------------------------------| 
D |-9---------------7--------------5----------------------------------------------| 
  Cause even when she's next to me We could not be more far apart 

D |-------------------------------------------------| 
A |-------------------------------------------------| 
D |--8----------------------0-------0------------5--| 
F#|--9----------------------7-------4------------5--| 
A |--9----------------------7-------4------------5--| 
D |-9----------------------7-------4------------5---| 
   Cause she tastes like birthday cake and storytime and fall 

D |-----------------------------------------------------------------------------------| 
A |-----------------------------------------------------------------------------------| 
D |---7---------------------------------5---------------------------------------------| 
F#|---7---------------------------------5---------------------------------------------| 
A |---7---------------------------------5---------------------------------------------| 
D |--7---------------------------------5----------------------------------------------| 
    But to her...I taste of nothing at all 


Chorus 

D |-------------------------------------------------------------------------------| 
A |-------------------------------------------------------------------------------| 
D |--8---------------0--------------5---------------------------------------------| 
F#|--9---------------7--------------5---------------------------------------------| 
A |--9---------------7--------------5---------------------------------------------| 
D |-9---------------7--------------5----------------------------------------------| 
    She smells like lemongrass and sleep 

D |-------------------------------------------------------------------------------| 
A |-------------------------------------------------------------------------------| 
D |--8---------------0--------------5---------------------------------------------| 
F#|--9---------------7--------------5---------------------------------------------| 
A |--9---------------7--------------5---------------------------------------------| 
D |-9---------------7--------------5----------------------------------------------| 
    She tastes like apple juice and peach 

D |---------------------------------------------------------------------------------| 
A |---------------------------------------------------------------------------------| 
D |--8---------------0----------------5---------------------------------------------| 
F#|--9---------------7---0------------5---------------------------------------------| 
A |--9---------------7---4------------5---------------------------------------------| 
D |-9---------------7---4------------5----------------------------------------------| 
    You would find her in a polaroid picture 

D |-------------------------------------------------------------------------------| 
A |-------------------------------------------------------------------------------| 
D |---7-----------------------------5---------------------------------------------| 
F#|---7-----------------------------5---------------------------------------------| 
A |---7-----------------------------5---------------------------------------------| 
D |--7-----------------------------5----------------------------------------------| 
     And she...means everything to me... 
  

top 5 | dodie clark
top rock'n roll
Outras músicas do artista letras do(a) Dodie Clark
5.
Down
Top cifras »Top artistas »
Petaxxon Comunicação Online
Cifras.com.br - Melhor e mais completo site de cifras e tablaturas do Brasil
Mais de 1 milhão de acordes de músicas cadastradas desde 2003
As informações contidas no nosso site são colaborações de seus usuários e podem conter erros, sendo assim, não nos responsabilizamos sobre nenhuma destas.
close
menos
mais
close
Cor dos acordes:

Cor da letra:

 

save
close
close
 
redimensionar