Cifras e Tablaturas
Dogwood

Dogwood

Grease

Cifras Cancelar Versão de Impressão
cifras

Dogwood - Grease

fixar na tela  
Exibindo: vídeo-aula ver clipes redimensionar

Tom:

  
Intro 
e|------------------l------------l---------------------l------------l-| 
B|--------------------------------------------------------------------| 
G|------------2----------------------------------2------------------5-| 
D|-----2-5-5----5-2-----------------------2-5-5----5-2--------------5-| 
A|-3h5--------------3--3/7-7-5-3-5----3h5--------------3--3-7-7-5-5-3-| 
E|--------------------------------------------------------------------| 

Verse 
e|-----------------------------------------------------------------| 
B|-----------------------------------------------------------------| 
G|-5-5-5-5-4-4-4-4-------------------------------------------------| 
D|-5-5-5-5-4-4-4-4-7-7-7-7-7-7-7-7-3-3-3-3-3-3-3-3-5-5-5-5-5-5-5-5-| x2 
A|-3-3-3-3-2-2-2-2-7-7-7-7-7-7-7-7-3-3-3-3-3-3-3-3-5-5-5-5-5-5-5-5-| 
E|-----------------5-5-5-5-5-5-5-5-1-1-1-1-1-1-1-1-3-3-3-3-3-3-3-3-| 

Interlude 
e|---| 
B|---| 
G|-5-| 
D|-5-| 
A|-3-| 
E|---| 

Verse 
e|--------------------------------------------------------------------------------| 
B|--------------------------------------------------------------------------------| 
G|-x-x-5-x-x-5-x-x-4-x-x-4--------------------------------------------------------| 
D|-x-x-5-x-x-5-x-x-4-x-x-4-x-x-7-x-x-7-x-x-7-x-x--3-3-3-3-3-3-3-3-5-5-5-5-5-5-5-5-| x4 
A|-x-x-3-x-x-3-x-x-2-x-x-2-x-x-7-x-x-7-x-x-7-x-x--3-3-3-3-3-3-3-3-5-5-5-5-5-5-5-5-| 
E|-------------------------x-x-5-x-x-5-x-x-5-x-x--1-1-1-1-1-1-1-1-3-3-3-3-3-3-3-3-| 

Chorus 
e|-----------------------------------------------------------------| 
B|-----------------------------------------------------------------| 
G|-5-5-5-5-4-4-4-4-------------------------------------------------| 
D|-5-5-5-5-4-4-4-4-7-7-7-7-7-7-7-7-3-3-3-3-3-3-3-3-5-5-5-5-5-5-5-5-| x2 
A|-3-3-3-3-2-2-2-2-7-7-7-7-7-7-7-7-3-3-3-3-3-3-3-3-5-5-5-5-5-5-5-5-| 
E|-----------------5-5-5-5-5-5-5-5-1-1-1-1-1-1-1-1-3-3-3-3-3-3-3-3-| 

Bridge 
PM                                - - - - - - - - - - - - 
e|------------------------------------------------------------------------| 
B|------------------------------------------------------------------------| 
G|-x-5-x-5-x-4-x-4--------------------------------------------------------| 
D|-x-5-x-5-x-4-x-4-x-7-x-7-x-7-x--------------------------5-5-3-3-2-2-----| x4 
A|-x-3-x-3-x-2-x-2-x-7-x-7-x-7-x----3---3---3---3---5---5-------------3-3-| 
E|-----------------x-5-x-5-x-5-x--1---1---1---1---3---3-------------------| 

Verse 
PM                                - - - - - - - - 
e|-------------------------------------------------l-| 
B|---------------------------------------------------| 
G|-x-5-x-5-x-4-x-4-----------------------------------| 
D|-x-5-x-5-x-4-x-4-x-7-x-7-x-7-x-------------------5-| 
A|-x-3-x-3-x-2-x-2-x-7-x-7-x-7-x----3---3---3---3--5-| 
E|-----------------x-5-x-5-x-5-x--1---1---1---1----3-| 

Chorus 
e|-----------------------------------------------------------------| 
B|-----------------------------------------------------------------| 
G|-5-5-5-5-4-4-4-4-------------------------------------------------| 
D|-5-5-5-5-4-4-4-4-7-7-7-7-7-7-7-7-3-3-3-3-3-3-3-3-5-5-5-5-5-5-5-5-| x4 
A|-3-3-3-3-2-2-2-2-7-7-7-7-7-7-7-7-3-3-3-3-3-3-3-3-5-5-5-5-5-5-5-5-| 
E|-----------------5-5-5-5-5-5-5-5-1-1-1-1-1-1-1-1-3-3-3-3-3-3-3-3-| 

End 
e|-l------|  
B|--------| 
G|-5----5-| 
D|-5----5-|  
A|-3----3-| 
E|--------| 

************************************ 

| x   Dead note 
| h   Hammer-on 
| /   Slide up 
| PM  Palm mute 
| l   Let ring 

************************************ 
  

top 5 | dogwood
top punk rock
Outras músicas do artista letras do(a) Dogwood
Top cifras »Top artistas »
Petaxxon Comunicação Online
Cifras.com.br - Melhor e mais completo site de cifras e tablaturas do Brasil
Mais de 1 milhão de acordes de músicas cadastradas desde 2003
As informações contidas no nosso site são colaborações de seus usuários e podem conter erros, sendo assim, não nos responsabilizamos sobre nenhuma destas.
close
menos
mais
close
Cor dos acordes:

Cor da letra:

 

save
close
close
 
redimensionar