Cifras e Tablaturas
Donovan

Donovan

To Try For The Sun

Cifras Cancelar Versão de Impressão
cifras

Donovan - To Try For The Sun

fixar na tela  
Exibindo: vídeo-aula ver clipes redimensionar

Tom:

  
Intro 

e|----------------|----------------|----------------|----------------| 
B|----------0-----|----------0-----|----3---------3-|----3-----------| 
G|------0---------|------0---------|----------2-----|----------2-----| 
D|----0-------0---|----2-------2---|----0-------0---|----0-------0---| 
A|----------------|3-------3-------|----------------|----------------| 
E|3-------3-------|----------------|2-------2-------|2-------2-------| 

e|----------------|----------------|----------------|----------------| 
B|----0-----------|----------------|----0-----------|----0---------0-| 
G|----------0-----|----------2---0-|----------0---0-|----------0-----| 
D|----2-----------|----0-------0---|----0-------0---|----2-------0---| 
A|3-------3---2---|0---------------|----------------|3---------------| 
E|----------------|--------2-------|3-------3-------|--------3-------| 

e|----------------|----------------|----------------|----------------| 
B|----0-----------|----0---------0-|----0-----------|----0---------0-| 
G|----------0---0-|----------0-----|----------0---0-|----------0-----| 
D|----0-------0---|----2-------0---|----0-------0---|----2-------0---| 
A|----------------|3---------------|----------------|3---------------| 
E|3-------3-------|--------3-------|3-------3-------|--------3-------| 

e|----------------|----------------| 
B|----0-----------|----0---------0-| 
G|----------0---0-|----------0-----| 
D|----0-------0---|----2-------0---| 
A|----------------|3---------------| 
E|3-------3-------|--------3-------| 


Verse 

e|----------------|----------------|----------------|2---------------| 
B|----0-----------|------------0---|------3---------|------3---------| 
G|----------0---0-|------0---------|--2-------2-----|----------2-----| 
D|----0-------0---|----2-------0---|----0-------0---|----0-------0---| 
A|----------------|3-------2-------|0-------0-------|----------------| 
E|3-------3-------|----------------|----------------|----------------| 
  We stood in the  windy            city... 

e|----------------|----------------|----------------|3---------------| 
B|----0-----------|----------------|----0-----------|------0---------| 
G|----------0-----|----------2-----|----------0-----|----------0-----| 
D|----2-----------|----0-------0---|----0-------0---|----0-------0---| 
A|3-------3---2---|0---------------|----------------|----------------| 
E|----------------|--------2-------|3-------3-------|----------------| 

e|----------------|----------------|----------------|2---------------| 
B|----0-----------|------------0---|------3---------|------3---------| 
G|----------0---0-|------0---------|--2-------2-----|----------2-----| 
D|----0-------0---|----2-------0---|----0-------0---|----0-------0---| 
A|----------------|3-------2-------|0-------0-------|----------------| 
E|3-------3-------|----------------|----------------|----------------| 

e|----------------|----------------|----------------|3---------------| 
B|----0-----------|----------------|----0-----------|------0---------| 
G|----------0-----|----------2-----|----------0-----|----------0-----| 
D|----2-----------|----0-------0---|----0-------0---|----0-------0---| 
A|3-------3---2---|0---------------|----------------|----------------| 
E|----------------|--------2-------|3-------3-------|----------------| 
                                                                And... 


Chorus 
While Donovan plays the harp solo, on the guitar he plays through the verse. 

e|----------------|----------------|----------------|3---------------| 
B|----1-----------|----3-----------|----0-----------|------0---------| 
G|----------0---0-|----------2---2-|----------0-----|----------0-----| 
D|----2-------2---|----0-------0---|----0-------0---|----0-------0---| 
A|3-------3-------|0-------0-------|----------------|----------------| 
E|----------------|----------------|3-------3-------|----------------| 
...who's going to  be... 

e|----------------|----------------|----------------|3---------------| 
B|----1-----------|----3-----------|----0-----------|------0---------| 
G|----------0---0-|----------2---2-|----------0-----|----------0-----| 
D|----2-------2---|----0-------0---|----0-------0---|----0-------0---| 
A|3-------3-------|0-------0-------|----------------|----------------| 
E|----------------|----------------|3-------3-------|----------------| 

e|----------------|----------------|----------------|3---------------| 
B|----1-----------|----3-----------|----0-----------|------0---------| 
G|----------0---0-|----------2---2-|----------0-----|----------0-----| 
D|----2-------2---|----0-------0---|----0-------0---|----0-------0---| 
A|3-------3-------|0-------0-------|----------------|----------------| 
E|----------------|----------------|3-------3-------|----------------| 

e|----------------|----------------|----------------|3---------------| 
B|----1-----------|----3-----------|----0-----------|------0---------| 
G|----------0---0-|----------2---2-|----------0-----|----------0-----| 
D|----2-------2---|----0-------0---|----0-------0---|----0-------0---| 
A|3-------3-------|0-------0-------|----------------|----------------| 
E|----------------|----------------|3-------3-------|----------------| 


Harp Solo 
This is played the same way as the verses are. 

e|----------------|----------------|----------------|2---------------| 
B|----0-----------|------------0---|------3---------|------3---------| 
G|----------0---0-|------0---------|--2-------2-----|----------2-----| 
D|----0-------0---|----2-------0---|----0-------0---|----0-------0---| 
A|----------------|3-------2-------|0-------0-------|----------------| 
E|3-------3-------|----------------|----------------|----------------| 

e|----------------|----------------|----------------|3---------------| 
B|----0-----------|----------------|----0-----------|------0---------| 
G|----------0-----|----------2-----|----------0-----|----------0-----| 
D|----2-----------|----0-------0---|----0-------0---|----0-------0---| 
A|3-------3---2---|0---------------|----------------|----------------| 
E|----------------|--------2-------|3-------3-------|----------------| 

e|----------------|----------------|----------------|2---------------| 
B|----0-----------|------------0---|------3---------|------3---------| 
G|----------0---0-|------0---------|--2-------2-----|----------2-----| 
D|----0-------0---|----2-------0---|----0-------0---|----0-------0---| 
A|----------------|3-------2-------|0-------0-------|----------------| 
E|3-------3-------|----------------|----------------|----------------| 

e|----------------|----------------|----------------|3---------------| 
B|----0-----------|----------------|----0-----------|------0---------| 
G|----------0-----|----------2-----|----------0-----|----------0-----| 
D|----2-----------|----0-------0---|----0-------0---|----0-------0---| 
A|3-------3---2---|0---------------|----------------|----------------| 
E|----------------|--------2-------|3-------3-------|----------------|  
  

top 5 | donovan
top rock clássico
Outras músicas do artista letras do(a) Donovan
Top cifras »Top artistas »
Petaxxon Comunicação Online
Cifras.com.br - Melhor e mais completo site de cifras e tablaturas do Brasil
Mais de 1 milhão de acordes de músicas cadastradas desde 2003
As informações contidas no nosso site são colaborações de seus usuários e podem conter erros, sendo assim, não nos responsabilizamos sobre nenhuma destas.
close
menos
mais
close
Cor dos acordes:

Cor da letra:

 

save
close
close
 
redimensionar