Cifras e Tablaturas
Dope Lemon

Dope Lemon

Uptown Folks

Cifras Cancelar Versão de Impressão
cifras

Dope Lemon - Uptown Folks

fixar na tela  
Exibindo: vídeo-aula ver clipes redimensionar

Tom:

  
Intro 

e|---------------------------------------------------------------------------| 
B|---------------------------------------------------------------------------| 
G|-----4-2-0-4-4-2~~2-0------2-2-2-2-0-2-2-----------------------------------|  
D|-0-0-------4-4--------4-4------------2-2---------0-------------------------| 
A|-2-2-------2-2--------4-4------------0-0-4-4-4-4---------------------------| 
E|-3-3------------------2-2--------------------------------------------------| 
                                                                              x1 
e|---------------------------------------------------------------------------| 
B|---------------------------------------------------------------------------| 
G|-----4-4-2-2-0-4-4-4-4-2-0------------0--2-2-------------------------------| 
D|-0-0-----------4-4-4-4----4-4-4-4-4-4----2-2-----2-2-----------------------| 
A|-2-2-----------2-2-2-2----4-4-4-4-4-4----0-0-4-4----4----------------------| 
E|-3-3----------------------2-2-2-2-2-2--------------------------------------| 


Bridge 

e|---------------------------------------------------------------------------| 
B|-12-12---------------------------------------------------------------------| 
G|------14-14-11-------------------------------------------------------------| 
D|-----------------16-16-14-14-11-----11-11-11-11-14--11-11-11-11-9----------| 
A|---------------------------------------------------------------------------| 
E|---------------------------------------------------------------------------| 
                                                                              x2 
e|---------------------------------------------------------------------------| 
B|---------------------------------------------------------------------------| 
G|-----4--2--0--4-4-4-4-4-4-4-4-4-------------2-0-2-2-2-2-2-2-2-2-2-2--------| 
D|-0-0----------4-4-4-4-4-4-4-4-4-4-4-4-4-4-4-----2-2-2-2-2-2-2-2-2-2--------| 
A|-2-2----------2-2-2-2-2-2-2-2-2-4-4-4-4-4-4-----0-0-0-0-0-0-0-0-0-0--------| 
E|-3-3----------------------------2-2-2-2-2-2--------------------------------| 


Verse 
the verses vary but this is the basic idea of each verse 
e|---------------------------------------------------------------------------| 
B|---------------------------------------------------------------------------| 
G|-----4--2--0--4-4-4-4-4-4-4-4-4-------------2-0-2-2-2-2-2-2-2-2-2-2--------| x4 
D|-0-0----------4-4-4-4-4-4-4-4-4-4-4-4-4-4-4-----2-2-2-2-2-2-2-2-2-2--------| 
A|-2-2----------2-2-2-2-2-2-2-2-2-4-4-4-4-4-4-----0-0-0-0-0-0-0-0-0-0--------| 
E|-3-3----------------------------2-2-2-2-2-2--------------------------------| 
  

Chorus 

e|---------------------------------------------------------------------------| 
B|-12-12---------------------------------------------------------------------| 
G|------14-14-11-------------------------------------------------------------| 
D|-----------------16-16-14-14-11-----11-11-11-11-14--11-11-11-11-9----------| 
A|---------------------------------------------------------------------------| 
E|---------------------------------------------------------------------------| 
                                                                              x2 
e|---------------------------------------------------------------------------| 
B|---------------------------------------------------------------------------| 
G|-----4--2--0--4-4-4-4-4-4-4-4-4-------------2-0-2-2-2-2-2-2-2-2-2-2--------| 
D|-0-0----------4-4-4-4-4-4-4-4-4-4-4-4-4-4-4-----2-2-2-2-2-2-2-2-2-2--------| 
A|-2-2----------2-2-2-2-2-2-2-2-2-4-4-4-4-4-4-----0-0-0-0-0-0-0-0-0-0--------| 
E|-3-3----------------------------2-2-2-2-2-2--------------------------------| 


Verse 

e|---------------------------------------------------------------------------| 
B|---------------------------------------------------------------------------| 
G|-----4--2--0--4-4-4-4-4-4-4-4-4-------------2-0-2-2-2-2-2-2-2-2-2-2--------| x4 
D|-0-0----------4-4-4-4-4-4-4-4-4-4-4-4-4-4-4-----2-2-2-2-2-2-2-2-2-2--------| 
A|-2-2----------2-2-2-2-2-2-2-2-2-4-4-4-4-4-4-----0-0-0-0-0-0-0-0-0-0--------| 
E|-3-3----------------------------2-2-2-2-2-2--------------------------------| 


Chorus 

e|---------------------------------------------------------------------------| 
B|-12-12---------------------------------------------------------------------| 
G|------14-14-11-------------------------------------------------------------| 
D|-----------------16-16-14-14-11-----11-11-11-11-14--11-11-11-11-9----------| 
A|---------------------------------------------------------------------------| 
E|---------------------------------------------------------------------------| 
                                                                              x2 
e|---------------------------------------------------------------------------| 
B|---------------------------------------------------------------------------| 
G|-----4--2--0--4-4-4-4-4-4-4-4-4-------------2-0-2-2-2-2-2-2-2-2-2-2--------| 
D|-0-0----------4-4-4-4-4-4-4-4-4-4-4-4-4-4-4-----2-2-2-2-2-2-2-2-2-2--------| 
A|-2-2----------2-2-2-2-2-2-2-2-2-4-4-4-4-4-4-----0-0-0-0-0-0-0-0-0-0--------| 
E|-3-3----------------------------2-2-2-2-2-2--------------------------------| 


Bridge to Breakdown Thing 

e|---------------------------------------------------------------------------| 
B|---------------------------------------------------------------------------| 
G|---------------------------------4-4-4-4-4-4-4-4-4-4-4-4-4-4-4-4-4-4-------| x2 
D|-0-0-0-0-0-0-0-0-0-0-0-0-0-0-0-0-4-4-4-4-4-4-4-4-4-4-4-4-4-4-4-4-4-4-------| 
A|-2-2-2-2-2-2-2-2-2-2-2-2-2-2-2-2-2-2-2-2-2-2-2-2-2-2-2-2-2-2-2-2-2-2-------| 
E|-3-3-3-3-3-3-3-3-3-3-3-3-3-3-3-3-------------------------------------------| 


{Breakdown Thing 
Cant tab this out cause there's no guitar in it, its just base guitar and 
an instrument i'm not familiar with   

Outro 

e|---------------------------------------------------------------------------| 
B|-12-12---------------------------------------------------------------------| 
G|------14-14-11-------------------------------------------------------------| 
D|-----------------16-16-14-14-11-----11-11-11-11-14--11-11-11-11-9----------| 
A|---------------------------------------------------------------------------| 
E|---------------------------------------------------------------------------| 
                                                                              x4 
e|---------------------------------------------------------------------------| 
B|---------------------------------------------------------------------------| 
G|-----4--2--0--4-4-4-4-4-4-4-4-4-------------2-0-2-2-2-2-2-2-2-2-2-2--------| 
D|-0-0----------4-4-4-4-4-4-4-4-4-4-4-4-4-4-4-----2-2-2-2-2-2-2-2-2-2--------| 
A|-2-2----------2-2-2-2-2-2-2-2-2-4-4-4-4-4-4-----0-0-0-0-0-0-0-0-0-0--------| 
E|-3-3----------------------------2-2-2-2-2-2--------------------------------| 

************************************ 

| x  Dead note 
| ~  Vibrato 

************************************ 
  

top 5 | dope lemon
top rock'n roll
Outras músicas do artista letras do(a) Dope Lemon
Top cifras »Top artistas »
Petaxxon Comunicação Online
Cifras.com.br - Melhor e mais completo site de cifras e tablaturas do Brasil
Mais de 1 milhão de acordes de músicas cadastradas desde 2003
As informações contidas no nosso site são colaborações de seus usuários e podem conter erros, sendo assim, não nos responsabilizamos sobre nenhuma destas.
close
menos
mais
close
Cor dos acordes:

Cor da letra:

 

save
close
close
 
redimensionar