Cifras e Tablaturas
Dorje

Dorje

Centred And One

Cifras Cancelar Versão de Impressão
cifras

Dorje - Centred And One

fixar na tela  
Exibindo: vídeo-aula ver clipes redimensionar
  
Tuning: C G C F A D (Drop C)  

Intro X4 
e|------------|--------------------------------------------------| 
B|------------|--------------------------------------------------| 
G|------------|--------------------------------------------------| 
D|------------|---------------------5-5-5-5----------------------| 
A|------------|-------------3-------3-3-2-2----------------------| 
E|--0-x-0-3-5-|0-0---5b—3p0----x—0-----------0-0-1~--------------| 


Verse X2 
e|------------|--------------------------------------------------| 
B|------------|--------------------------------------------------| 
G|------------|--------------------------------------------------| 
D|------------|--------------------------------------------------| 
A|------------|-----------------15-----15-15~14-14~--(-----17p0)-| 
E|--0-x-0-15-17--0-0---17b—15p0----x—0---------------(15p0-----)-| 
                                                        (Palm muted) 

e|------------|--------------------------------------------------| 
B|------------|--------------------------------------------------| 
G|------------|--------------------------------------------------| 
D|------------|--------------------------------------------------| 
A|------------|-----------------15-----15-15~14-14/15h17p15\13---| 
E|--0-x-0-15-17--0-0---17b—15p0----x—0---------------------------| 

Pre Chorus 
e|------------|--------------------------------------------------| 
B|------------|--------------------------------------------------| 
G|------------|--------------------------------------------------| 
D|-8-8-8-8-8\7|5\4----4-4-4-4-4/5-7/8----------------------------| 
A|-5-5-5-5-5-5|5-5----5-5-5-5-5-5-5-5----------------------------| 
E|------------|--------------------------------------------------| 

e|------------|--------------------------------------------------| 
B|------------|--------------------------------------------------| 
G|------------|--------------------------------------------------| 
D|-8-8-8-8-8\7|5\4----4-4-4-4-4/5-7/8----------------------------| 
A|-5-5-5-5-5-5|5-5----5-5-5-5-5-5-5-5----------------------------| 
E|------------|--------------------------------------------------| 

e|------------|--------------------------------------------------| 
B|------------|--------------------------------------------------| 
G|------------|--------------------------------------------------| 
D|-8—-5/7\5---|---------------8-8-8-8-8\7-5\4-4-4-4--------------| 
A|-5—-3/5\3--5|-3-----3-5-----5-5-5-5-5-5-5-5-5-5-5--------------| 
E|-----------5|-3-0-0-3-5----------------------------------------| 


Verse X2 
e|------------|--------------------------------------------------| 
B|------------|--------------------------------------------------| 
G|------------|--------------------------------------------------| 
D|------------|--------------------------------------------------| 
A|------------|-----------------15-----15-15~14-14~--(-----17p0)-| 
E|--0-x-0-15-17--0-0---17b—15p0----x—0---------------(15p0-----)-| 
                                                        (Palm muted) 

e|------------|--------------------------------------------------| 
B|------------|--------------------------------------------------| 
G|------------|--------------------------------------------------| 
D|------------|--------------------------------------------------| 
A|------------|-----------------15-----15-15~14-14/15h17p15\13---| 
E|--0-x-0-15-17--0-0---17b—15p0----x—0---------------------------| 


Pre Chorus 
e|------------|--------------------------------------------------| 
B|------------|--------------------------------------------------| 
G|------------|--------------------------------------------------| 
D|-8-8-8-8-8\7|5\4----4-4-4-4-4/5-7/8----------------------------| 
A|-5-5-5-5-5-5|5-5----5-5-5-5-5-5-5-5----------------------------| 
E|------------|--------------------------------------------------| 

e|------------|--------------------------------------------------| 
B|------------|--------------------------------------------------| 
G|------------|--------------------------------------------------| 
D|-8-8-8-8-8\7|5\4----4-4-4-4-4/5-7/8----------------------------| 
A|-5-5-5-5-5-5|5-5----5-5-5-5-5-5-5-5----------------------------| 
E|------------|--------------------------------------------------| 

e|------------|--------------------------------------------------| 
B|------------|--------------------------------------------------| 
G|------------|--------------------------------------------------| 
D|-8—-5/7\5---|---------------8-8-8-8-8\7-5\4-4-4-4--------------| 
A|-5—-3/5\3--5|-3-----3-5-----5-5-5-5-5-5-5-5-5-5-5--------------| 
E|-----------5|-3-0-0-3-5----------------------------------------| 


Chorus x2  
e|------------|--------------------------------------------------| 
B|------------|--------------------------------------------------| 
G|-------5-5--|5-5-----------------------------------------------| 
D|-------3-3--|3-3--------------x-x-x-x-x-3p0--------------------| 
A|-------3-3--|3-3-------3/5----x-x-x-x-x----3p0-----------------| 
E|--0-0--3-3-0|3-3--x-x—-3/5----x-x-x-x-x------------------------| 

e|------------|--------------------------------------------------| 
B|------------|--------------------------------------------------| 
G|-------5-5--|5-5-----------------------------------------------| 
D|-------3-3--|3-3-----------------------------------------------| 
A|-------3-3--|3-3-------3/5\3-----------------10----------------| 
E|--0-0--3-3-0|3-3--x-x—-3/5\3---18/---0-10-12----13~------------| 

Chorus ending 
e|------------|--------------------------------------------------| 
B|--6-6-6-6-6-6-6-6----------------------------------------------| 
G|--5-5-5-5-5-5-5-5----------------------------------------------| 
D|--3-3-3-3-3-3-3-3-2-2-2-2-1-1-1-1------------------------------| 
A|--3-3-3-3-3-3-3-3-2-2-2-2-1-1-1-1------------------------------| 
E|--3-3-3-3-3-3-3-3-2-2-2-2-1-1-1-1------------------------------| 


Solo backing (Rythmn guitar) 
X5             X2 
e|------------|-----------------------------------| 
B|--------3---|-----------------------------------| 
G|--------5---|-----------------------------------| 
D|------------|----------4-----------4----------4-| 
A|------------|--------3-----------3----------3---| 
E|--0-3-5-----|-14\--0-----0-3-4-3------1/4\1-----| 

After playing the above standing three times 
e|---------|----------------------------------| 
B|---------|--6-6-6-6-6-6-6-6-----------------| 
G|---------|--5-5-5-5-5-5-5-5-----------------| 
D|---------|--3-3-3-3-3-3-3-3-2-2-2-2-1-1-1-1-| 
A|---------|--3-3-3-3-3-3-3-3-2-2-2-2-1-1-1-1-| 
E|-3p0—1p0-|--3-3-3-3-3-3-3-3-2-2-2-2-1-1-1-1-| 





Outro 
e|-----------|---------------------------------------------------| 
B|-----------|---------------------------------------------------| 
G|-----------|---------------------------------------------------| 
D|-8-8-8-8-8\7-5\4-4-4-4-4--4-4-4-4-4/5-7/8----------------------| 
A|-5-5-5-5-5-5-5-5-5-5-5-5--5-5-5-5-5-5-5-5----------------------| 
E|-----------|---------------------------------------------------| 

e|-----------|---------------------------------------------------| 
B|-----------|---------------------------------------------------| 
G|-----------|---------------------------------------------------| 
D|-8-8-8-8-8\7-5\4-4-4-4-4--4-4-4-4-4/5-7/8----------------------| 
A|-5-5-5-5-5-5-5-5-5-5-5-5--5-5-5-5-5-5-5-5----------------------| 
E|-----------|---------------------------------------------------| 

e|-----------|---------------------------------------------------| 
B|-----------|---------------------------------------------------| 
G|-----------|---------------------------------------------------| 
D|-8—-5/7\5--|---------------------------------------------------| 
A|-5—-3/5\3--5\3-3-3-3-3-3-3-3/5-1-0--8-8-8-8--3/5-1-0-----------| 
E|-----------5\3-3-3-3-3-3-3-3/5-1-0--8-8-8-8--3/5-1-0-----------| 

| /  slide up 
| \  slide down 
| h  hammer-on 
| p  pull-off 
| ~  vibrato 
| +  harmonic 
| x  Mute note 
  

cifra enviadasem correções
enviado porenviada por:alyslima
top 5 | dorje
top rock'n roll
Outras músicas do artista letras do(a) Dorje
Top cifras »Top artistas »
Petaxxon Comunicação Online
Cifras.com.br - Melhor e mais completo site de cifras e tablaturas do Brasil
Mais de 1 milhão de acordes de músicas cadastradas desde 2003
As informações contidas no nosso site são colaborações de seus usuários e podem conter erros, sendo assim, não nos responsabilizamos sobre nenhuma destas.
close
menos
mais
close
Cor dos acordes:

Cor da letra:

 

save
close
close
 
redimensionar