Cifras e Tablaturas
Drake

Drake

Fake Love

Cifras Cancelar Versão de Impressão
cifras

Drake - Fake Love

fixar na tela  
Exibindo: vídeo-aula ver clipes redimensionar
  Last Part 

|----------------------------------------------------------------| 
|-------8--8/10\8--8--------------8--8/10--8--------------8-8/10-| 
|----9----------------9--------9--------------9--------9---------| 
|-7----------------------7--7--------------------7--7------------| 
|----------------------------------------------------------------| 
|----------------------------------------------------------------| 

|----------------------------------------------------------------| 
|-8--------------8--8/10--8---------------8--8/10--8-------------| 
|----9--------9--------------9---------9--------------9--------9-| 
|-------7--7--------------------10--7--------------------7--7----| 
|----------------------------------------------------------------| 
|----------------------------------------------------------------| 

|--------------------------------------------------------------| 
|-8--8/10--8--------------8--8/10--8-------------8--8/10--8----| 
|-------------9--------9--------------9-------9--------------9-| 
|----------------7--7--------------------7-7-------------------| 
|--------------------------------------------------------------| 
|--------------------------------------------------------------| 

|-8/10--8------10/12--10------15/17--15-----| 
|----------10-------------13-------------17-| 
|-------------------------------------------| 
|-------------------------------------------| 
|-------------------------------------------| 
|-------------------------------------------| 
  

top 5 | drake
top rap/hip hop
Outras músicas do artista letras do(a) Drake
Top cifras »Top artistas »
Petaxxon Comunicação Online
Cifras.com.br - Melhor e mais completo site de cifras e tablaturas do Brasil
Mais de 1 milhão de acordes de músicas cadastradas desde 2003
As informações contidas no nosso site são colaborações de seus usuários e podem conter erros, sendo assim, não nos responsabilizamos sobre nenhuma destas.
close
menos
mais
close
Cor dos acordes:

Cor da letra:

 

save
close
close
 
redimensionar