Cifras e Tablaturas
D.R.I.

D.R.I.

Thrashard

Cifras Cancelar Versão de Impressão Print

D.R.I. - Thrashard

Tom:

  • 0:00 / 0:00
  			
Eb|---------------------------------------| 
Bb|---------------------------------------| 
Gb|---------------------------------------| 
Db|---------------------------------------| 
Ab|-0-----(0)-----------------------------| 
Eb|-----------------------------------12/-| 


Eb|--------------------------------------------------------------------------------| 
Bb|--------------------------------------------------------------------------------| 
Gb|--------------------------------------------------------------------------------| 
Db|------------------------------------3-2-------------------------------------3-2-| 
Ab|-0-0--1p0--0-0--3p0--0-0--2p0--0-0--1-0--0-0--2p0--0-0--3p0--0-0--2p0--0-0--1-0-| 
Eb|--------------------------------------------------------------------------------| 


Eb|-------------------------------------------------------------------------------| 
Bb|-------------------------------------------------------------------------------| 
Gb|-------------------------------------------------------------------------------| 
Db|------------------------------------3-2--------------------------------------2-| 
Ab|-0-0--1p0--0-0--3p0--0-0--2p0--0-0--1-0--0-0--2p0--0-0--3p0--0-0--2p0--0-0-0-0-| 
Eb|-------------------------------------------------------------------------------| 


Eb|--------------------------------------------------------------------------------| 
Bb|--------------------------------------------------------------------------------| 
Gb|--------------------------------------------------------------------------------| 
Db|------------------------------------3-2-------------------------------------3-2-| 
Ab|-0-0--1p0--0-0--3p0--0-0--2p0--0-0--1-0--0-0--2p0--0-0--3p0--0-0--2p0--0-0--1-0-| 
Eb|--------------------------------------------------------------------------------| 

verse 
Eb|--------------------------------------------------------------------------------| 
Bb|--------------------------------------------------------------------------------| 
Gb|--------------------------------------------------------------------------------| 
Db|------3---------5---------4---------3---------4---------5---------4---------3---| 
Ab|-0-0--1p0--0-0--3p0--0-0--2p0--0-0--1-0--0-0--2p0--0-0--3p0--0-0--2p0--0-0--1-0-| 
Eb|--------------------------------------------------------------------------------| 

Eb|-------------------------------------------------------------------------------| 
Bb|-------------------------------------------------------------------------------| 
Gb|-------------------------------------------------------------------------------| 
Db|------------------------------------3--------------------------------------3---| 
Ab|-0-0--1p0--0-0--3p0--0-0--2p0--0-0--1-0--0-0--2p0--0-0--3p0--0-0--2p0--0-0-1-0-| 
Eb|-------------------------------------------------------------------------------| 


Eb|--------------------------------------------------------------------------------| 
Bb|--------------------------------------------------------------------------------| 
Gb|--------------------------------------------------------------------------------| 
Db|------3---------5---------4---------3---------4---------5---------4---------3---| 
Ab|-0-0--1p0--0-0--3p0--0-0--2p0--0-0--1-0--0-0--2p0--0-0--3p0--0-0--2p0--0-0--1-0-| 
Eb|--------------------------------------------------------------------------------| 

             in the pit 
:-------------------------| 
:-------------------------| 
:-------------------------| 
:------------------2-2-2--| 
:-1-0-1-0-1-0-1-0--0-0-0--| 
:-------------------------| 


Eb|----------------------------------------------------------------------------------------| 
Bb|----------------------------------------------------------------------------------------| 
Gb|----------------------------------------------------------------------------------------| 
Db|--------3---------4-----------5---------4-----------3-----------4---------------7-7-7-7-| 
Ab|-0-0-0--1-0--0-0--2-0--0-0-0--3-0--0-0--2-0--0-0-0--1-0--0-0-0--2-0--0-0-0-0-0--5-5-5-5-| 
Eb|----------------------------------------------------------------------------------------| 

:--------| 
:--------| 
:--------| 
:-7-7-7--| 
:-5-5-5--| 
:--------| 

Eb|-----------------------------------------------------------------------------------| 
Bb|-----------------------------------------------------------------------------------| 
Gb|-----------------------------------------------------------------------------------| 
Db|--------3---------4-----------5---------4-----------3-----------4---------------7--| 
Ab|-0-0-0--1-0--0-0--2-0--0-0-0--3-0--0-0--2-0--0-0-0--1-0--0-0-0--2-0--0-0-0-0-0--5--| 
Eb|-----------------------------------------------------------------------------------| 

thrashin and slamin... 
Eb|----------------------------------------------------------------------------------------| 
Bb|----------------------------------------------------------------------------------------| 
Gb|----------------------------------------------------------------------------------------| 
Db|--------3---------4-----------5---------4-----------3-----------4---------------7-7-7-7-| 
Ab|-0-0-0--1-0--0-0--2-0--0-0-0--3-0--0-0--2-0--0-0-0--1-0--0-0-0--2-0--0-0-0-0-0--5-5-5-5-| 
Eb|----------------------------------------------------------------------------------------| 

:--------| 
:--------| 
:--------| 
:-7-7-7--| 
:-5-5-5--| 
:--------| 

Eb|----------------------------------------------------------------------------------------| 
Bb|----------------------------------------------------------------------------------------| 
Gb|----------------------------------------------------------------------------------------| 
Db|--------3---------4-----------5---------4-----------3-----------4---------------7-7-7-7-| 
Ab|-0-0-0--1-0--0-0--2-0--0-0-0--3-0--0-0--2-0--0-0-0--1-0--0-0-0--2-0--0-0-0-0-0--5-5-5-5-| 
Eb|----------------------------------------------------------------------------------------| 

:--------| 
:--------| 
:--------| 
:-7-7-7--| 
:-5-5-5--| 
:--------| 


:------------------------------------------------------------------------------------| 
:------------------------------------------------------------------------------------| 
:-----------------------------2--4--5--4-4-2-2--0-0-2-0-0-2-0-0-0-0------------------| 
:--------3---------4-------------------------------------------------5-5-5-5-5-5-5-5-| 
:-0-0-0--1-0--0-0--2-0--0-0-0----------------------------------------3-3-3-3-3-3-3-3-| 
:------------------------------------------------------------------------------------| 

:------------------------------------------------------------------------------------| 
:------------------------------------------------------------------------------------| 
:-----------------------------2--4--5--4-4-2-2--0-0-2-0-0-2-0-0-0-0------------------| 
:--------3---------4-------------------------------------------------5-5-5-5-5-5-5-5-| 
:-0-0-0--1-0--0-0--2-0--0-0-0----------------------------------------3-3-3-3-3-3-3-3-| 
:------------------------------------------------------------------------------------| 


Eb|----------------------------------------------------------------------------------------| 
Bb|----------------------------------------------------------------------------------------| 
Gb|----------------------------------------------------------------------------------------| 
Db|--------3---------4-----------5---------4-----------3-----------4---------------7-7-7-7-| 
Ab|-0-0-0--1-0--0-0--2-0--0-0-0--3-0--0-0--2-0--0-0-0--1-0--0-0-0--2-0--0-0-0-0-0--5-5-5-5-| 
Eb|----------------------------------------------------------------------------------------| 

:--------| 
:--------| 
:--------| 
:-7-7-7--| 
:-5-5-5--| 
:--------| 

Eb|----------------------------------------------------------------------------------------| 
Bb|----------------------------------------------------------------------------------------| 
Gb|----------------------------------------------------------------------------------------| 
Db|--------3---------4-----------5---------4-----------3-----------4---------------7-7-7-7-| 
Ab|-0-0-0--1-0--0-0--2-0--0-0-0--3-0--0-0--2-0--0-0-0--1-0--0-0-0--2-0--0-0-0-0-0--5-5-5-5-| 
Eb|----------------------------------------------------------------------------------------| 

:--------| 
:--------| 
:--------| 
:-7-7-7--| 
:-5-5-5--| 
:--------| 

:----------------------------------------------------------------------------------| 
:----------------------------------------------------------------------------------| 
:-----------------------------2--4--5--4-4-2-2--0-0-2-0-0-2-0-0-0-0----------------| 
:--------3---------4-------------------------------------------------5---5---5---5-| 
:-0-0-0--1-0--0-0--2-0--0-0-0----------------------------------------3---3---3---3-| 
:----------------------------------------------------------------------------------| 



:-----------------------------------------------------------------------------| 
:-----------------------------------------------------------------------------| 
:-----------------------------------------------------------------------------| 
:--6-6-6-6--7-7--9-9--6-6-6-6--7-7--9-9--6-6-6-6--7-7--9-9--6-6-6-6--9-9--8-8-| 
:--4-4-4-4--5-5--7-7--4-4-4-4--5-5--7-7--4-4-4-4--5-5--7-7--4-4-4-4--7-7--6-6-| 
:-----------------------------------------------------------------------------| 

:-----------------------------------------------------------------------------| 
:-----------------------------------------------------------------------------| 
:-----------------------------------------------------------------------------| 
:--6-6-6-6--7-7--9-9--6-6-6-6--7-7--9-9--6-6-6-6--7-7--9-9--6-6-6-6--9-9--8-8-| 
:--4-4-4-4--5-5--7-7--4-4-4-4--5-5--7-7--4-4-4-4--5-5--7-7--4-4-4-4--7-7--6-6-| 
:-----------------------------------------------------------------------------| 

:---------------------------------------| 
:---------------------------------------| 
:---------------------------------------| 
:--6-6-6-6--7-7--9-9--6-6-6-6--10-9-7---| 
:--4-4-4-4--5-5--7-7--4-4-4-4--8--7-5---| 
:---------------------------------------| 



  slide down 
Eb|-------------------------------------------------------| 
Bb|-------------------------------------------------------| 
Gb|-------------------------------------------------------| 
Db|----------------3-------4-------3----------------------| 
Ab|-x/--------0-0--1--0-0--2--0-0--1--0-0-1--0-0-1--0-0-1-| 
Eb|-x/----------------------------------------------------| 

Eb|----------------------------------------------| 
Bb|----------------------------------------------| 
Gb|----------------------------------------------| 
Db|-------3-------4-------3----------------------| 
Ab|--0-0--1--0-0--2--0-0--1--0-0-1--0-0-1--0-0-1-| 
Eb|----------------------------------------------| 


Eb|-----------------------------------------------------------------------------------| 
Bb|-----------------------------------------------------------------------------------| 
Gb|------------------------------------------------------------------2ahb------5ah~~--| 
Db|------3------4-------3------5------4------3------6------5------4-------4ah---------| 
Ab|-0-0--1--0-0-2--0-0--1--0-0-3--0-0-2--0-0-1--0-0-4--0-0-3--0-0-2-------------------| 
Eb|-----------------------------------------------------------------------------------| 


Eb|----------------------------------------------------------------------------------------| 
Bb|----------------------------------------------------------------------------------------| 
Gb|----------------------------------------------------------------------------------------| 
Db|----------------------------------------------------------------------------------------| 
Ab|-0-0--1p0--0--3p0--0-0-0--2p0--0-0--1p0--0-0-0--2p0--0--3p0--0-0-0--2p0--0--0-1--0-2-0-3| 
Eb|----------------------------------------------------------------------------------------| 


Eb|----------------------------------------------------| 
Bb|----------------------------------------------------| 
Gb|----------------------------------------------------| 
Db|------3---------5---------4----3-----4----5----4----| 
Ab|-0-0--1p0--0-0--3p0--0-0--2p0--1-0-0-2p0--3p0--2p0--| 
Eb|----------------------------------------------------| 

Eb|----------------------------------------------------| 
Bb|----------------------------------------------------| 
Gb|----------------------------------------------------| 
Db|------3---------5---------4----3-----4----5----4----| 
Ab|-0-0--1p0--0-0--3p0--0-0--2p0--1-0-0-2p0--3p0--2p0--| 
Eb|----------------------------------------------------| 

Eb|----------------------------------------------------------| 
Bb|----------------------------------------------------------| 
Gb|----------------------------------------------------------| 
Db|------3---------5---------4----3-----4----5----4----5-4-3-| 
Ab|-0-0--1p0--0-0--3p0--0-0--2p0--1-0-0-2p0--3p0--2p0--3-2-1-| 
Eb|----------------------------------------------------------| 

Eb|----------------------------| 
Bb|----------------------------| 
Gb|----------------------------| 
Db|-10---9---8---7---6---5---2-| 
Ab|-8----7---6---5---4---3---0-| 
Eb|----0---0---0---0---0---0---| 

Eb|----------------------------| 
Bb|----------------------------| 
Gb|----------------------------| 
Db|-10---9---8---7---6---5---2-| 
Ab|-8----7---6---5---4---3---0-| 
Eb|----0---0---0---0---0---0---| 

Eb|----------------------------| 
Bb|----------------------------| 
Gb|----------------------------| 
Db|-10---9---8---7---6---5---2-| 
Ab|-8----7---6---5---4---3---0-| 
Eb|----0---0---0---0---0---0---| 

Eb|----------------------------------------| 
Bb|----------------------------------------| 
Gb|----------------------------------------| 
Db|-----3-----4-----5-----6-----7----------| 
Ab|-0-0-1-0-0-2-0-0-3-0-0-4-0-0-5----7/8/7-| 
Eb|--------------------------------0-5/6/5-| 

Eb|----------------------------| 
Bb|----------------------------| 
Gb|----------------------------| 
Db|-10---9---8---7---6---5---2-| 
Ab|-8----7---6---5---4---3---0-| 
Eb|----0---0---0---0---0---0---| 

Eb|----------------------------| 
Bb|----------------------------| 
Gb|----------------------------| 
Db|-10---9---8---7---6---5---2-| 
Ab|-8----7---6---5---4---3---0-| 
Eb|----0---0---0---0---0---0---| 


Eb|--------------------------------------------------------------------------------| 
Bb|--------------------------------------------------------------------------------| 
Gb|--------------------------------------------------------------------------------| 
Db|------------------------------------3-2-------------------------------------3-2-| 
Ab|-0-0--1p0--0-0--3p0--0-0--2p0--0-0--1-0--0-0--2p0--0-0--3p0--0-0--2p0--0-0--1-0-| 
Eb|--------------------------------------------------------------------------------| 


Eb|-------------------------------------------------------------------------------| 
Bb|-------------------------------------------------------------------------------| 
Gb|-------------------------------------------------------------------------------| 
Db|------------------------------------3-2--------------------------------------2-| 
Ab|-0-0--1p0--0-0--3p0--0-0--2p0--0-0--1-0--0-0--2p0--0-0--3p0--0-0--2p0--0-0-0-0-| 
Eb|-------------------------------------------------------------------------------| 

verse 
Eb|--------------------------------------------------------------------------------| 
Bb|--------------------------------------------------------------------------------| 
Gb|--------------------------------------------------------------------------------| 
Db|------3---------5---------4---------3---------4---------5---------4---------3---| 
Ab|-0-0--1p0--0-0--3p0--0-0--2p0--0-0--1-0--0-0--2p0--0-0--3p0--0-0--2p0--0-0--1-0-| 
Eb|--------------------------------------------------------------------------------| 

             in the pit 
:-------------------------| 
:-------------------------| 
:-------------------------| 
:------------------2-2-2--| 
:-1-0-1-0-1-0-1-0--0-0-0--| 
:-------------------------| 
    	

enviado porenviado por: fernsantana
cifra enviadaCorrigida por: sem correções
logo top cifrasComente
ico música do artistaMúsicas deste artista
ico curtiuCurtiu?
ico destaqueDestaque
Petaxxon Comunicação Online

Cifras.com.br - Melhor e mais completo site de cifras e tablaturas do Brasil Mais de 1 milhão de acordes de músicas cadastradas desde 2003
As informações contidas no nosso site são colaborações de seus usuários e podem conter erros, sendo assim, não nos responsabilizamos sobre nenhuma destas.

close
menos
mais
close
Cor dos acordes:

Cor da letra:

close
Alinhar acordes a direita Alinhar acordes a esquerda Alinhar acordes em baixo Alinhar acordes no topo
close
  Mostrar todos os acordes Esconder acordes muito fáceis Esconder acordes fáceis Esconder acordes intermediários
redimensionar
glossário