Cifras e Tablaturas
D.R.I.

D.R.I.

You Say I'm Scum

Cifras Cancelar Versão de Impressão Print

D.R.I. - You Say I'm Scum

Tom:

  • 0:00 / 0:00
  			Intro 

e|------------------------------------| 
B|------------------------------------| 
G|------0--------0--------0-------0---| 
D|----2--------2--------0-------0-----| 
A|--0------0-3------3-2-----2-1-----1-| 
E|------------------------------------| 

e|------------------------------------| 
B|----------------------------------0-| 
G|------0--------0--------0-------0---| 
D|----2--------2--------0-------0-----| 
A|--0------0-3------3-2-----2-1-------| 
E|------------------------------------| 

e|------------------------------------| 
B|------------------------------------| 
G|------0--------0--------0-------0---| 
D|----2--------2--------0-------0-----| 
A|--0------0-3------3-2-----2-1-----1-| 
E|------------------------------------| 

e|------------------------------------| 
B|----------------------------------0-| 
G|------0--------0--------0-------0---| 
D|----2--------2--------0-------0-----| 
A|--0------0-3------3-2-----2-1-------| 
E|------------------------------------| 

e|--0------| 
B|---0-----| 
G|----2----| 
D|-----2---| 
A|------0--| 
E|---------| 


Verse 

e|-------------------------------------| 
B|-------------------------------------| 
G|-------------------------------------| 
D|------------7-9----------------------| 
A|--7--2--5---5-7-----------7--7-7-7-7-| 
E|--5--0--3--------0-0-0-0--5--5-5-5-5-| 

e|------------------------------------------| 
B|------------------------------------------| 
G|------------------------------------------| 
D|------------7-9-------7-9-----------------| 
A|--7--2--5---5-7-------5-7------7--7-7-7-7-| 
E|--5--0--3--------0-0------0-0--5--5-5-5-5-| 

e|------------------------------------------| 
B|------------------------------------------| 
G|------------------------------------------| 
D|------------7-9-------7-9-----------------| 
A|--7--2--5---5-7-------5-7------7--7-7-7-7-| 
E|--5--0--3--------0-0------0-0--5--5-5-5-5-| 

e|----------------------------------| 
B|----------------------------------| 
G|----------------------------------| 
D|------------7-9-------7-9---------| 
A|--7--2--5---5-7-------5-7------7--| 
E|--5--0--3--------0-0------0-0--5--| 


Chorus 

e|------------------------------------------------------------------------------------------| 
B|------------------------------------------------------------------------------------------| 
G|------------------------------------------------------------------------------------------| 
D|---------------------9---------------------9------------------------9-------------------7-| 
A|---------------------7---------------------7------------------------7-------------------5-| 
E|--000000000000000000---0000000000000000000---0000000000000000000000---00000000000000000---| 


e|-------------------------------| 
B|-------------------------------| 
G|-------------------------------| 
D|------10-----10-----10--12--10-| 
A|------8------8------8---10--8--| 
E|--000----000----000------------| 

e|-------------------------------| 
B|-------------------------------| 
G|-------------------------------| 
D|------10-----10-----10--12--10-| 
A|------8------8------8---10--8--| 
E|--000----000----000------------| 

e|-------------------------------| 
B|-------------------------------| 
G|-------------------------------| 
D|------10-----12-----10------12-| 
A|------8------10-----8-------10-| 
E|--000----000----000-----000----| 

e|------------------------------| 
B|------------------------------| 
G|------------------------------| 
D|------10-----12-----10------9-| 
A|------8------10-----8-------7-| 
E|--000----000----000-----000---| 


e|---------------------| 
B|---------------------| 
G|---------------------| 
D|--999-101010-666-777-| 
A|--777-8-8-8--444-555-| 
E|---------------------| 

e|---------------------| 
B|---------------------| 
G|---------------------| 
D|--999-101010-666-777-| 
A|--777-8-8-8--444-555-| 
E|---------------------| 

e|---------------------| 
B|---------------------| 
G|---------------------| 
D|--999-101010-666-777-| 
A|--777-8-8-8--444-555-| 
E|---------------------| 

e|---------------------| 
B|---------------------| 
G|---------------------| 
D|--999-101010-666-777-| 
A|--777-8-8-8--444-555-| 
E|---------------------| 

    bar 
e|------------------------------------------| 
B|--5~~~------------------------------------| 
G|---5~~~-----------------------------------| 
D|----5~~~----------------------------------| 
A|------------------------------------------| 
E|------------------------------------------| 


Verse 

e|-------------------------------------| 
B|-------------------------------------| 
G|-------------------------------------| 
D|------------7-9----------------------| 
A|--7--2--5---5-7-----------7--7-7-7-7-| 
E|--5--0--3--------0-0-0-0--5--5-5-5-5-| 

e|------------------------------------------| 
B|------------------------------------------| 
G|------------------------------------------| 
D|------------7-9-------7-9-----------------| 
A|--7--2--5---5-7-------5-7------7--7-7-7-7-| 
E|--5--0--3--------0-0------0-0--5--5-5-5-5-| 

e|------------------------------------------| 
B|------------------------------------------| 
G|------------------------------------------| 
D|------------7-9-------7-9-----------------| 
A|--7--2--5---5-7-------5-7------7--7-7-7-7-| 
E|--5--0--3--------0-0------0-0--5--5-5-5-5-| 

e|----------------------------------| 
B|----------------------------------| 
G|----------------------------------| 
D|------------7-9-------7-9---------| 
A|--7--2--5---5-7-------5-7------7--| 
E|--5--0--3--------0-0------0-0--5--| 


Chorus 

e|---------------------| 
B|---------------------| 
G|---------------------| 
D|--999-101010-666-777-| 
A|--777-8-8-8--444-555-| 
E|---------------------| 

e|---------------------| 
B|---------------------| 
G|---------------------| 
D|--999-101010-666-777-| 
A|--777-8-8-8--444-555-| 
E|---------------------| 

e|---------------------| 
B|---------------------| 
G|---------------------| 
D|--999-101010-666-777-| 
A|--777-8-8-8--444-555-| 
E|---------------------| 

e|---------------------| 
B|---------------------| 
G|---------------------| 
D|--999-101010-666-777-| 
A|--777-8-8-8--444-555-| 
E|---------------------| 

e|---------------------| 
B|---------------------| 
G|---------------------| 
D|--999-101010-666-777-| 
A|--777-8-8-8--444-555-| 
E|---------------------| 

e|---------------------| 
B|---------------------| 
G|---------------------| 
D|--999-101010-666-777-| 
A|--777-8-8-8--444-555-| 
E|---------------------| 

e|---------------------| 
B|---------------------| 
G|---------------------| 
D|--999-101010-666-777-| 
A|--777-8-8-8--444-555-| 
E|---------------------| 

         bar 
e|-----2----------------------------------------------------| 
B|----3-----------------------------------------------------| 
G|---2------------------------------------------------------| 
D|--0-------------------------------------------------------| 
A|----------------------------------------------------------| 
E|----------------------------------------------------------| 
    	

enviado porenviado por: renejunior
cifra enviadaCorrigida por: sem correções
logo top cifrasComente
ico música do artistaMúsicas deste artista
ico curtiuCurtiu?
ico destaqueDestaque
Petaxxon Comunicação Online

Cifras.com.br - Melhor e mais completo site de cifras e tablaturas do Brasil Mais de 1 milhão de acordes de músicas cadastradas desde 2003
As informações contidas no nosso site são colaborações de seus usuários e podem conter erros, sendo assim, não nos responsabilizamos sobre nenhuma destas.

close
menos
mais
close
Cor dos acordes:

Cor da letra:

close
Alinhar acordes a direita Alinhar acordes a esquerda Alinhar acordes em baixo Alinhar acordes no topo
close
  Mostrar todos os acordes Esconder acordes muito fáceis Esconder acordes fáceis Esconder acordes intermediários
redimensionar
glossário