Cifras e Tablaturas
Dropkick Murphys
Cifras Cancelar Versão de Impressão

Dropkick Murphys - Denial

Tom: G

  			
 
                  DENIAL - The Dropkick Murphys 
 
                DROPKICK MURPHYS/BRUISERS Split EP 
 
---------------------------------------------------------------------- 
 
 
 
By: Johnny Bleachedjeans;  
 
 
 
INTRO: 
 
    G              G              G              G 
 
E|--3--3-----------3--3-----------3--3-----------3--3----------------- 
 
B|--3--3-----------3--3-----------3--3-----------3--3----------------- 
 
G|--0--0-----------0--0-----------0--0-----------0--0----------------- 
 
D|--0--0-----------0--0-----------0--0-----------0--0----------------- 
 
A|---------3-2-0----------3-2-0----------3-2-0----------3-2-0--------- 
 
E|--3--3---------3-3--3---------3-3--3---------3-3--3---------3------- 
 
 
 
VERSE: 
 
In the face of all... 
 
     G                         G 
 
E|---3--3--3--3--3--3----------3--3--3--3--3--3----------------------- 
 
B|---3--3--3--3--3--3----------3--3--3--3--3--3----------------------- 
 
G|---0--0--0--0--0--0----------0--0--0--0--0--0----------------------- 
 
D|---0--0--0--0--0--0----------0--0--0--0--0--0----------------------- 
 
A|---------------------3-2-0---------------------3-2-0---------------- 
 
E|---3--3--3--3--3--3--------3-3--3--3--3--3--3--------3-------------- 
 
 
 
CHORUS: 
 
Look in the mirror...               I've tried so hard... 
 
    C       D       B               C       D       B 
 
E|-------------------------------------------------------------------- 
 
B|-------------------------------------------------------------------- 
 
G|--5-5-5-5-7-7-7-7-4-4-4-4-4-4-4-4-5-5-5-5-7-7-7-7-4-4-4-4-4-4-4-4--- 
 
D|--5-5-5-5-7-7-7-7-4-4-4-4-4-4-4-4-5-5-5-5-7-7-7-7-4-4-4-4-4-4-4-4--- 
 
A|--3-3-3-3-5-5-5-5-2-2-2-2-2-2-2-2-3-3-3-3-5-5-5-5-2-2-2-2-2-2-2-2--- 
 
E|-------------------------------------------------------------------- 
 
 
 
Look in the mirror...               I've tried so hard... 
 
    C       D       B               C               D 
 
E|-------------------------------------------------------------------- 
 
B|-------------------------------------------------------------------- 
 
G|--5-5-5-5-7-7-7-7-4-4-4-4-4-4-4-4-5-5-5-5-5-5-5-5-7-7-7-7-7-7-7-7--- 
 
D|--5-5-5-5-7-7-7-7-4-4-4-4-4-4-4-4-5-5-5-5-5-5-5-5-7-7-7-7-7-7-7-7--- 
 
A|--3-3-3-3-5-5-5-5-2-2-2-2-2-2-2-2-3-3-3-3-3-3-3-3-5-5-5-5-5-5-5-5--- 
 
E|-------------------------------------------------------------------- 
 
 
 
   It's real                 It's real 
 
     G                         G 
 
E|---3--3--3--3--3--3----------3--3--3--3--3--3----------------------- 
 
B|---3--3--3--3--3--3----------3--3--3--3--3--3----------------------- 
 
G|---0--0--0--0--0--0----------0--0--0--0--0--0----------------------- 
 
D|---0--0--0--0--0--0----------0--0--0--0--0--0----------------------- 
 
A|---------------------3-2-0---------------------3-2-0---------------- 
 
E|---3--3--3--3--3--3--------3-3--3--3--3--3--3--------3-------------- 
 
 
 
====================================================================== 
 

    	
fixar
fixar inscrever-se

enviado porenviado por: anônimo
cifra enviadaCorrigida por: sem correções
logo top cifrasComente
ico música do artistaMúsicas deste artista
ico curtiuCurtiu?
ico destaqueDestaque
Petaxxon Comunicação Online

Cifras.com.br - Melhor e mais completo site de cifras e tablaturas do Brasil Mais de 1 milhão de acordes de músicas cadastradas desde 2003
As informações contidas no nosso site são colaborações de seus usuários e podem conter erros, sendo assim, não nos responsabilizamos sobre nenhuma destas.

close
menos
mais
close
Cor dos acordes:

Cor da letra:

close
Alinhar acordes a direita Alinhar acordes a esquerda Alinhar acordes em baixo Alinhar acordes no topo
close
  Mostrar todos os acordes Esconder acordes muito fáceis Esconder acordes fáceis Esconder acordes intermediários
redimensionar
glossário