Cifras e Tablaturas
Dropkick Murphys

Dropkick Murphys

I'm Shipping Up To Boston

Cifras Cancelar Versão de Impressão

Dropkick Murphys - I'm Shipping Up To Boston

Tom:

  			 
E|-----------------------7----------------------| 
B|-------------7-8-7------10-8-10-8-7-----------| 
G|-9--7-9--7-9-------9-7-------------7-9--------| 
D|----------------------------------------------| 
A|----------------------------------------------| 
E|----------------------------------------------| 
 

 
E|----------------------------------------------7--:| 
B|---------------7-8-7----------------------7-8----:| 
G|-7-9--7-9--7-9-------9-7-9--7-9--7-9--7-9--------:| (3x) 
D|-------------------------------------------------:| 
A|-------------------------------------------------:| 
E|-------------------------------------------------:| 
 

 
E|-----------------------7---------------| 
B|-------------7-8-7------10-8-10-8-7----| 
G|-9--7-9--7-9-------9-7-------------7-9-| 
D|---------------------------------------| 
A|---------------------------------------| 
E|---------------------------------------| 
 

 
E|------------------9-10-9-------------------------------9-10-14-| 
B|-12--10-12--10-12--------12-10-12--10-12--10-12--10-12---------| 
G|---------------------------------------------------------------| 
D|---------------------------------------------------------------| 
A|---------------------------------------------------------------| 
E|---------------------------------------------------------------| 
 

 
E|------------------9-10-9-------14-12-10-12-10---10-----------:| 
B|-12--10-12--10-12--------12-10---------------14---14--10-12--:| 
G|-------------------------------------------------------------:| 
D|-------------------------------------------------------------:| (2x) 
A|-------------------------------------------------------------:| 
E|-------------------------------------------------------------:| 
    	
fixar
fixar inscrever-se

enviado porenviado por: gustsilva
cifra enviadaCorrigida por: sem correções
logo top cifrasComente
ico música do artistaMúsicas deste artista
ico curtiuCurtiu?
ico destaqueDestaque
Petaxxon Comunicação Online

Cifras.com.br - Melhor e mais completo site de cifras e tablaturas do Brasil Mais de 1 milhão de acordes de músicas cadastradas desde 2003
As informações contidas no nosso site são colaborações de seus usuários e podem conter erros, sendo assim, não nos responsabilizamos sobre nenhuma destas.

close
menos
mais
close
Cor dos acordes:

Cor da letra:

close
Alinhar acordes a direita Alinhar acordes a esquerda Alinhar acordes em baixo Alinhar acordes no topo
close
  Mostrar todos os acordes Esconder acordes muito fáceis Esconder acordes fáceis Esconder acordes intermediários
redimensionar
glossário