Cifras e Tablaturas
Dua Lipa

Dua Lipa

Idgaf

Cifras Cancelar Versão de Impressão
cifras

Dua Lipa - Idgaf

fixar na tela  
Exibindo: vídeo-aula ver clipes redimensionar

Tom:

Em

ver outros tons
  
Intro  
  (Em)     (D)           (G)        (C)    
e|--------x----------x-|---------x----------x--|  
B|------8-x------7---x-|------12-x------5---x--|  
G|----0---x----0-----x-|----0----x----0-----x--|    
D|--------x----------x-|---------x----------x--|  
A|--7-----x--5-------x-|-10------x--3-------x--|  
E|---------------------|-----------------------|  

Verse/Chorus  
  (Em)     (D)           (G)        (C)   
e|--------x----------x-|---------x----------x--|  
B|------8-x------7---x-|------12-x------5---x--|  
G|----0---x----0-----x-|----0----x----0-----x--|    
D|--------x----------x-|---------x----------x--|  
A|--7-----x--5-------x-|-10------x--3-------x--|  
E|---------------------|-----------------------|  

  (Em)     (D)           (Bm)        (C)  
e|--------x----------x-|------x----------x-----|  
B|------8-x------7---x-|----3-x------5---x-----|  
G|----0---x----0-----x-|---0--x----0-----x-----|  
D|--------x----------x-|------x----------x-----|  
A|--7-----x--5-------x-|-2----x--3-------x-----|  
E|---------------------|-----------------------|  

************************************  

| x   Dead note  

************************************  

  

cifra enviadacorrigido por:Jeanhenry61
enviado porenviada por:adalgomes
top 5 | dua lipa
top rock'n roll
Outras músicas do artista letras do(a) Dua Lipa
Top cifras »Top artistas »
Petaxxon Comunicação Online
Cifras.com.br - Melhor e mais completo site de cifras e tablaturas do Brasil
Mais de 1 milhão de acordes de músicas cadastradas desde 2003
As informações contidas no nosso site são colaborações de seus usuários e podem conter erros, sendo assim, não nos responsabilizamos sobre nenhuma destas.
close
menos
mais
close
Cor dos acordes:

Cor da letra:

 

save
close
close
 
redimensionar