Cifras e Tablaturas
Dustin Kensrue

Dustin Kensrue

Gallows

Cifras Cancelar Versão de Impressão
cifras

Dustin Kensrue - Gallows

fixar na tela  
Exibindo: vídeo-aula ver clipes redimensionar

Tom:

  
All guitars 
e|-x-x-----x-x-----x-x-----x-x-x-x-| 
B|-x-x-----x-x-----x-x-----x-x-x-x-| 
G|-x-x-----x-x-----x-x-----x-x-x-x-| 
D|-x-x-----x-x-----x-x-----x-x-x-x-| 
A|-x-x-----x-x-----x-x-----x-x-x-x-| 
E|-x-x-----x-x-----x-x-----x-x-x-x-| 

/////////////////////////////////////// 
///             INTRO (x2)          /// 
/////////////////////////////////////// 

Guitar #1 
e|-----------------------------------------------------------------| 
B|-----------------------------------------------------------------| 
G|-6---6---------------------6-6-6-6-6-6---------------------------| 
D|---------8-8---8---8-8---8---------------8-8---8---8-8---8-6-6-6-| 
A|-----------------------------------------------------------------| 
E|-----------------------------------------------------------------| 

e|------------------------------------------------------------------------| 
B|------------------------------------------------------------------------| 
G|-----------------------------------8pb9-8pb9-8pb9-8pb10-8pb10-8pb10-8-6-| 
D|-6h8---8---8-6---6h8-8-8---8-6-6-6--------------------------------------| 
A|------------------------------------------------------------------------| 
E|------------------------------------------------------------------------| 

Guitar #2 
e|--------------------------------------------------------------------------| 
B|--------------------------------------------------------------------------| 
G|--------------------------------------------------------------------------| 
D|--8-8-8-8-8-8-8-8-8-8-8-8-8-8-8-8-8-8-8-8-8-8-8-8-8-8-8-8-8-8-8-8-8-8-8-8-| 
A|--------------------------------------------------------------------------| 
E|--6-6-6-6-6-6-6-6-6-6-6-6-6-6-6-6-6-6-6-6-6-6-6-6-6-6-6-6-6-6-6-6-6-6-6-6-| 

e|--------------------------------------------------------------------------| 
B|--------------------------------------------------------------------------| 
G|--8-8-8-8-8-8-8-8-8-8-8-8-8-8-8-8-8-8-8-8-8-8-8-8-8-8-8-8-8-8-8-8-8-8-8-8-| 
D|--------------------------------------------------------------------------| 
A|--6-6-6-6-6-6-6-6-6-6-6-6-6-6-6-6-6-6-6-6-6-6-6-6-6-6-6-6-6-6-6-6-6-6-6-6-| 
E|--------------------------------------------------------------------------| 

/////////////////////////////////////// 
///              verse 1            /// 
/////////////////////////////////////// 

No guitars. 

/////////////////////////////////////// 
///          Pre-Chorus (x2)        /// 
/////////////////////////////////////// 

Guitar #1 
e|-----------------------------------------------------------------------| 
B|-----------------------------------------------------------------------| 
G|-------------6-----8/10-----------------------6-----8/10-----8-----6---| 
D|-----6/8------------------------------6/8------------------------------| 
A|-----------------------------------------------------------------------| 
E|-----------------------------------------------------------------------| 

e|-------------------------------------| 
B|-----9--9--x-9--x-x-6\---------------| 
G|-------------------------------------| 
D|-------------------------------------| 
A|-------------------------------------| 
E|-------------------------------------| 

e|-----------------------------------------------------------------------| 
B|-----------------------------------------------------------------------| 
G|-------------6-----8/10-----------------------6-----8/10-----8-----6---| 
D|-----6/8------------------------------6/8------------------------------| 
A|-----------------------------------------------------------------------| 
E|-----------------------------------------------------------------------| 

e|------------------------------------------------------------------------| 
B|-----9--9--x-9--x-x-6\-------------------9--9--x-9--x-x-6-------6h7p6---| 
G|------------------------------------------------------------------------| 
D|------------------------------------------------------------------------| 
A|------------------------------------------------------------------------| 
E|------------------------------------------------------------------------| 

Guitar #2 
e|-----------------------------------------------------------------------| 
B|-----------------------------------------------------------------------| 
G|-------------6-----8/10-----------------------6-----8/10-----8-----6---| 
D|-----6/8------------------------------6/8------------------------------| 
A|-----------------------------------------------------------------------| 
E|-----------------------------------------------------------------------| 

e|-------------------------------------| 
B|-------------------------------------| 
G|-----10-10-x-10-x-x-6\---------------| 
D|-------------------------------------| 
A|-------------------------------------| 
E|-------------------------------------| 

e|-----------------------------------------------------------------------| 
B|-----------------------------------------------------------------------| 
G|-------------6-----8/10-----------------------6-----8/10-----8-----6---| 
D|-----6/8------------------------------6/8------------------------------| 
A|-----------------------------------------------------------------------| 
E|-----------------------------------------------------------------------| 

e|------------------------------------------------------------------------| 
B|------------------------------------------------------------------------| 
G|-----10-10-x-10-x-x-6\-------------------10-10-x-10-x-x-6-------6h8p6---| 
D|------------------------------------------------------------------------| 
A|------------------------------------------------------------------------| 
E|------------------------------------------------------------------------| 

/////////////////////////////////////// 
///            Chorus (x2)          /// 
/////////////////////////////////////// 

Guitar #1 
e|-9-9-9-9-9-9-9-9/11-11-11-11-11-11-11-11-11-8-8-8-8-8-8-8-8/9-9-9-9-9/11-11-11-| 
B|-------------------------------------------------------------------------------| 
G|-6-6-6-6-6-6-6-6/8--8--8--8--8--8--8--8--8--5-5-5-5-5-5-5-5/6-6-6-6-6/8--8--8--| 
D|-------------------------------------------------------------------------------| 
A|-------------------------------------------------------------------------------| 
E|-------------------------------------------------------------------------------| 

e|--------------------------------------------------------------------------| 
B|--------------------------------------------------------------------------| 
G|-------------6-----10---------------------------6-----8-----------5-------| 
D|-----6/8--------------------8p6-6-6-----6/8-------------------------------| 
A|--------------------------------------------------------------------------| 
E|--------------------------------------------------------------------------| 

Guitar #2 

e|---------------------------------------------------------------------------------| 
B|---------------------------------------------------------------------------------| 
G|---------------------------------------------------------------------------------| 
D|-8-8-8-8-8-8-8-8-8-8-8-8-8-8-8-8-10-10-10-10-10-10-10-10/11-11-11-11-11/13-13-13-| 
A|---------------------------------------------------------------------------------| 
E|-6-6-6-6-6-6-6-6-6-6-6-6-6-6-6-6-8--8--8--8--8--8--8---8/9--9--9--9---9/11-11-11-| 

e|--------------------------------------------------------------------------| 
B|--------------------------------------------------------------------------| 
G|-------------6-----10---------------------------6-----8-----------5-------| 
D|-----6/8--------------------------------6/8-------------------------------| 
A|--------------------------------------------------------------------------| 
E|--------------------------------------------------------------------------| 

/////////////////////////////////////// 
///       Play INTRO again (x2)     /// 
/////////////////////////////////////// 

/////////////////////////////////////// 
///           verse 2 (x2)          /// 
/////////////////////////////////////// 

Guitar #1 
e|-6-------------------------------------------------------------------| 
B|-6-------------------------------------------------------------------| 
G|-6-------------------------------------------------------------------| 
D|-8-------------------------------------------------------------------| 
A|-8-------------------------------------------------------------------| 
E|-6-------------------------------------------------------------------| 

e|-6-------------------------------------------------------------------| 
B|-7-------------------------------------------------------------------| 
G|-8-------------------------------------------------------------------| 
D|-8-------------------------------------------------------------------| 
A|-6-------------------------------------------------------------------| 
E|---------------------------------------------------------------------| 

Guitar #2 
e|-----------------------------------------------------------------------| 
B|-----------------------------------------------------------------------| 
G|-------------6-----8/10-----------------------6-----8/10-----8-----6---| 
D|-----6/8------------------------------6/8------------------------------| 
A|-----------------------------------------------------------------------| 
E|-----------------------------------------------------------------------| 

e|---------------------------------------------------------------------| 
B|---------------------------------------------------------------------| 
G|---------------------------------------------------------------------| 
D|-----8---------------------------------------------------------------| 
A|---------------------------------------------------------------------| 
E|---------------------------------------------------------------------| 

/////////////////////////////////////// 
///    Play Pre-Chorus again (x2)   /// 
/////////////////////////////////////// 

/////////////////////////////////////// 
///      Play Chorus again (x4)     /// 
/////////////////////////////////////// 

/////////////////////////////////////// 
///              OUTRO              /// 
/////////////////////////////////////// 

No guitars. 

************************************ 

| /   slide up 
| \   slide down 
| h   hammer-on 
| p   pull-off 
| ~   vibrato 
| +   harmonic 
| x   Mute note 
| b   Bend 
| pb  Pre-bend 
| br  Bend release 
| pbr Pre-bend release 
| brb Bend release bend 

************************************ 
  

top 5 | dustin kensrue
top rock'n roll
Outras músicas do artista letras do(a) Dustin Kensrue
Top cifras »Top artistas »
Petaxxon Comunicação Online
Cifras.com.br - Melhor e mais completo site de cifras e tablaturas do Brasil
Mais de 1 milhão de acordes de músicas cadastradas desde 2003
As informações contidas no nosso site são colaborações de seus usuários e podem conter erros, sendo assim, não nos responsabilizamos sobre nenhuma destas.
close
menos
mais
close
Cor dos acordes:

Cor da letra:

 

save
close
close
 
redimensionar