Cifras e Tablaturas
Dz Deathrays

Dz Deathrays

Shred For Summer

Cifras Cancelar Versão de Impressão
cifras

Dz Deathrays - Shred For Summer

fixar na tela  
Exibindo: vídeo-aula ver clipes redimensionar

Tom:

  
Intro 

e|---------------------------|   |---------------------------| 
B|---------------------------|   |---------------------------| 
G|---------------------------|x3 |---------------------------| 
D|---------------------------|   |-------------------10p8----| 
A|--------10---------10p8----|   |--------10--------------10-| 
C|-7--7-7-----7--7-7------10-|   |-7--7-7-----7--7-7---------| 

e|-----------------------|----------------------| 
B|-----------------------|----------------------| 
G|-----------------------|----------------------| 
D|-----------------------|----------------------| 
A|---------8---------3---|-6---8----------------| 
C|-10--10-----5--5-5---5-|---------10---5--5--5-| 



verse 1 

e|---------------------------|   |---------------------------| 
B|---------------------------|   |---------------------------| 
G|---------------------------|x3 |---------------------------| 
D|---------------------------|   |-------------------10p8----| 
A|--------10---------10p8----|   |--------10--------------10-| 
C|-7--7-7-----7--7-7------10-|   |-7--7-7-----7--7-7---------| 

e|-----------------------------|----------------------| 
B|-----------------------------|----------------------| 
G|-----------------------------|----------------------| 
D|-----------------------------|----------------------| 
A|-----------8------------8----|--------3---------3---| 
C|-10--10-10----10--10-10---10-|-5--5-5----5--5-5---5-| 

e|---------------------------|---------------------------| 
B|---------------------------|---------------------------| 
G|---------------------------|---------------------------| 
D|---------------------------|-------------------10p8----| 
A|--------10---------10p8----|--------10--------------10-| 
C|-7--7-7-----7--7-7------10-|-7--7-7-----7--7-7---------| 

e|-----------------------|----------------------| 
B|-----------------------|----------------------| 
G|-----------------------|----------------------| 
D|-----------------------|----------------------| 
A|---------8---------3---|-6---8----------------| 
C|-10--10-----5--5-5---5-|---------10---5--5--5-| 

e|---------------------------|   |---------------------------| 
B|---------------------------|   |---------------------------| 
G|---------------------------|x3 |---------------------------| 
D|---------------------------|   |-------------------10p8----| 
A|--------10---------10p8----|   |--------10--------------10-| 
C|-7--7-7-----7--7-7------10-|   |-7--7-7-----7--7-7---------| 

e|-----------------------------|----------------------| 
B|-----------------------------|----------------------| 
G|-----------------------------|----------------------| 
D|-----------------------------|----------------------| 
A|-----------8------------8----|--------3---------3---| 
C|-10--10-10----10--10-10---10-|-5--5-5----5--5-5---5-| 

e|---------------------------|---------------------------| 
B|---------------------------|---------------------------| 
G|---------------------------|---------------------------| 
D|---------------------------|-------------------10p8----| 
A|--------10---------10p8----|--------10--------------10-| 
E|-7--7-7-----7--7-7------10-|-7--7-7-----7--7-7---------| 

e|-----------------------|----------------------| 
B|-----------------------|----------------------| 
G|-----------------------|----------------------| 
D|-----------------------|----------------------| 
A|---------8---------3---|-6---8----------------| 
C|-10--10-----5--5-5---5-|---------10---5--5--5-| 


Chorus 

Guitar 1 
e|----------------------------------------------| 
B|----------------------------------------------| 
G|----------------------------------------------| x3 
D|----------------------------------------------| 
A|----------------------------------------------| 
C|-3--3--3-3-0-0--0--0--10--10--10-10-7-7--7--7-| 

Guitar 2 
e|---------------------------| 
B|---------3--6--3---4-3-----| 
G|----3--5---------------5-3-| x3 
D|-5-------------------------| 
A|---------------------------| 
C|---------------------------| 


Guitar 1 
e|-------------------------------------------| 
B|-------------------------------------------| 
G|-------------------------------------------|  
D|-------------------------------------------| 
A|----------------------6---8----------------| 
C|-3--3--3-3-0-0--0--0----------10---5--5--5-| 

Guitar 2 
e|------------------| 
B|------------------| 
G|----3----3--------|  
D|-5-----5----5---3-| 
A|------------------| 
C|------------------| 


Guitar 1  
e|---------------------------|    
B|---------------------------|  
G|---------------------------| x2 
D|---------------------------|    
A|--------10---------10p8----|    
C|-7--7-7-----7--7-7------10-|    

verse 2 

e|---------------------------|   |---------------------------| 
B|---------------------------|   |---------------------------| 
G|---------------------------|x3 |---------------------------| 
D|---------------------------|   |-------------------10p8----| 
A|--------10---------10p8----|   |--------10--------------10-| 
C|-7--7-7-----7--7-7------10-|   |-7--7-7-----7--7-7---------| 

e|-----------------------------|----------------------| 
B|-----------------------------|----------------------| 
G|-----------------------------|----------------------| 
D|-----------------------------|----------------------| 
A|-----------8------------8----|--------3---------3---| 
C|-10--10-10----10--10-10---10-|-5--5-5----5--5-5---5-| 

e|---------------------------|---------------------------| 
B|---------------------------|---------------------------| 
G|---------------------------|---------------------------| 
D|---------------------------|-------------------10p8----| 
A|--------10---------10p8----|--------10--------------10-| 
C|-7--7-7-----7--7-7------10-|-7--7-7-----7--7-7---------| 


e|-----------------------|----------------------| 
B|-----------------------|----------------------| 
G|-----------------------|----------------------| 
D|-----------------------|----------------------| 
A|---------8---------3---|-6---8----------------| 
C|-10--10-----5--5-5---5-|---------10---5--5--5-| 


Chorus 

Guitar 1 
e|----------------------------------------------| 
B|----------------------------------------------| 
G|----------------------------------------------| x3 
D|----------------------------------------------| 
A|----------------------------------------------| 
C|-3--3--3-3-0-0--0--0--10--10--10-10-7-7--7--7-| 

Guitar 2 
e|---------------------------| 
B|---------3--6--3---4-3-----| 
G|----3--5---------------5-3-| x3 
D|-5-------------------------| 
A|---------------------------| 
C|---------------------------| 


Guitar 1 
e|-------------------------------------------| 
B|-------------------------------------------| 
G|-------------------------------------------|  
D|-------------------------------------------| 
A|----------------------6---8----------------| 
C|-3--3--3-3-0-0--0--0----------10---5--5--5-| 

Guitar 2 
e|------------------| 
B|------------------| 
G|----3----3--------|  
D|-5-----5----5---3-| 
A|------------------| 
C|------------------| 


Bridge 

e|-----------------| 
B|-----------------| 
G|-----------------| x12 
D|-----------------| 
A|-----------------| 
C|-7-7-7-7-7-7-7-7-| 
P.M________________| 


Chorus 

e|-------------------------------------------------------------------------| 
B|-------------------------------------------------------------------------| 
G|-------------------------------------------------------------------------| X2 
D|-------------------------------------------------------------------------| 
A|-------------------------------------------------------------------------| 
C|-3-3-3-3-3-3-3-3-0-0-0-0-0-0-0-0-10-10-10-10-10-10-10-10-7-7-7-7-7-7-7-7-| 

e|---------------------------------------------------------| 
B|---------------------------------------------------------| 
G|---------------------------------------------------------|  
D|---------------------------------------------------------| 
A|---------------------------------------------------------| 
C|-3-3-3-3-3-3-3-3-0-0-0-0-0-0-0-0-10-10-10-10-10-10-10-10-| 

e|----------------------------------------------------| 
B|---------------6-----------8p6----6-----------------| 
G|-5p3----3--5-7---7------3------7-----7-5-7--5-------| 
D|-----5--------------3h5------------------------8--5-| 
A|----------------------------------------------------| 
C|----------------------------------------------------| 


Guitar 1 
e|----------------------------------------------| 
B|----------------------------------------------| 
G|----------------------------------------------| x3 
D|----------------------------------------------| 
A|----------------------------------------------| 
C|-3--3--3-3-0-0--0--0--10--10--10-10-7-7--7--7-| 

Guitar 2 
e|---------------------------| 
B|---------3--6--3---4-3-----| 
G|----3--5---------------5-3-| x3 
D|-5-------------------------| 
A|---------------------------| 
C|---------------------------| 


Guitar 1 
e|----------------------------------------------| 
B|----------------------------------------------| 
G|----------------------------------------------|  
D|----------------------------------------------| 
A|----------------------------------------------| 
C|-3--3--3-3-0-0--0--0--10--10--10-10-7-7--7--7-| 

Guitar 2 
e|------------------| 
B|------------------| 
G|----3----3--------|  
D|-5-----5----5---3-| 
A|------------------| 
C|------------------| 



Outro 

e|-------------------------| 
B|-------------------------| 
G|-------------------------| x4 
D|-------------------------| 
A|-------------------------| 
C|-10--10--10-10--7-7--7-7-| 

e|----------------------------------------| 
B|----------------------------------------| 
G|----------------------------------------| 
D|----------------------------------------| 
A|----------------------------------------| 
C|-5--------------------------------------| 


************************************ 

| h   Hammer-on 
| p   Pull-off 
| b   Bend 
| PM  Palm mute 

************************************ 
  

top 5 | dz deathrays
top thrash metal
Outras músicas do artista letras do(a) Dz Deathrays
Top cifras »Top artistas »
Petaxxon Comunicação Online
Cifras.com.br - Melhor e mais completo site de cifras e tablaturas do Brasil
Mais de 1 milhão de acordes de músicas cadastradas desde 2003
As informações contidas no nosso site são colaborações de seus usuários e podem conter erros, sendo assim, não nos responsabilizamos sobre nenhuma destas.
close
menos
mais
close
Cor dos acordes:

Cor da letra:

 

save
close
close
 
redimensionar