Cifras e Tablaturas
Eav

Eav

Maschine

Cifras Cancelar Versão de Impressão
cifras

Eav - Maschine

fixar na tela  
Exibindo: vídeo-aula ver clipes redimensionar

Tom:

  
Intro 

e|----------| 
B|----------| 
G|----------| 
D|--2----2--| x4 
A|--2----2-0| 
D|x-2--x-2-0| 


Verse 


e|:-----------|--------------:|----------|   
B|:-----------|--------------:|----------| 
G|:-----------|--------------:|----------| 
D|:--2-----2--|--------------:|----------| 
A|:--2-----2-0|--2--x-2-2-2-3:|--2----2-0| 
D|:x-2--x--2-0|x-2--x-2-2-2-3:|x-2--x-2-0| 




Chorus 


e|-------|-------|-------|-------|  
B|-------|-------|-------|-------| 
G|-------|-------|-------|-------| 
D|5-5-5-5|7-7-7-7|-------|-------| x2 
A|3-3-3-3|5-5-5-5|2-2-2-2|2-2-2-2| 
D|-------|-------|2-2-2-2|2-2-2-2| 


Verse 

e|:-----------|--------------:|----------|   
B|:-----------|--------------:|----------| 
G|:-----------|--------------:|----------| 
D|:--2-----2--|--------------:|----------| 
A|:--2-----2-0|--2--x-2-2-2-3:|--2----2-0| 
D|:x-2--x--2-0|x-2--x-2-2-2-3:|x-2--x-2-0| 


Chorus 


e|-------|-------|-------|-------|  
B|-------|-------|-------|-------| 
G|-------|-------|-------|-------| 
D|5-5-5-5|7-7-7-7|-------|-------| x2 
A|3-3-3-3|5-5-5-5|2-2-2-2|2-2-2-2| 
D|-------|-------|2-2-2-2|2-2-2-2| 


Verse 

e|:-----------|--------------:|----------|   
B|:-----------|--------------:|----------| 
G|:-----------|--------------:|----------| 
D|:--2-----2--|--------------:|----------| 
A|:--2-----2-0|--2--x-2-2-2-3:|--2----2-0| 
D|:x-2--x--2-0|x-2--x-2-2-2-3:|x-2--x-2-0| 

Chorus 


e|-------|-------|-------|-------|  
B|-------|-------|-------|-------| 
G|-------|-------|-------|-------| 
D|5-5-5-5|7-7-7-7|-------|-------| x4 
A|3-3-3-3|5-5-5-5|2-2-2-2|2-2-2-2| 
D|-------|-------|2-2-2-2|2-2-2-2| 





************************************ 

| x   Dead note 

************************************ 
  

top 5 | eav
top rock'n roll
Outras músicas do artista letras do(a) Eav
Top cifras »Top artistas »
Petaxxon Comunicação Online
Cifras.com.br - Melhor e mais completo site de cifras e tablaturas do Brasil
Mais de 1 milhão de acordes de músicas cadastradas desde 2003
As informações contidas no nosso site são colaborações de seus usuários e podem conter erros, sendo assim, não nos responsabilizamos sobre nenhuma destas.
close
menos
mais
close
Cor dos acordes:

Cor da letra:

 

save
close
close
 
redimensionar