Cifras e Tablaturas
Eav

Eav

Was Ist Los

Cifras Cancelar Versão de Impressão
cifras

Eav - Was Ist Los

fixar na tela  
Exibindo: vídeo-aula ver clipes redimensionar

Tom:

  
Intro 

e|:-------|-------|-------|-------:| 
B|:-------|-------|-------|-------:| 
G|:-------|-------|-------|-------:| 
D|:-------|7-7-7-7|2-2-2-2|3-3-7-7:| x2 
A|:2-2-2-2|5-5-5-5|0-0-0-0|1-1-5-5:| 
E|:0-0-0-0|-------|-------|-------:| 



Verse 

e|-------|-------|-------|-------|--------| 
B|-------|-------|-------|-------|--------| 
G|-------|-------|-------|-------|--------| 
D|-------|-------|-------|-------|--------| 
A|2-2----|2-2----|2-2----|5-5--7-|7-7-7---| 
E|0-0----|0-0----|0-0----|3-3--5-|5-5-5---| 



Chorus                                        Interlude 

e|:-------|-------|-------|---------:|          |---------------| 
B|:-------|-------|-------|---------:|          |---------------| 
G|:-------|-------|-------|---------:|          |---------------| 
D|:-------|7-7-7-7|2-2-2-2|3-3---7-7:| x2       |--------------2| 
A|:2-2-2-2|5-5-5-5|0-0-0-0|1-1---5-5:|          |6-5-3-5-6-5-3-2| 
E|:0-0-0-0|-------|-------|---------:|          |--------------0| 


Verse 

e|-------|-------|-------|-------|--------| 
B|-------|-------|-------|-------|--------| 
G|-------|-------|-------|-------|--------| 
D|-------|-------|-------|-------|--------| 
A|2-2----|2-2----|2-2----|5-5--7-|7-7-7---| 
E|0-0----|0-0----|0-0----|3-3--5-|5-5-5---| 


Alternate Verse 

e|-------|-------|-------|-----------| 
B|-------|-------|-------|-----------| 
G|-------|-------|-------|-----------| 
D|-------|7-7-7\-|2-2-2\-|5-5\7-7-7-7| 
A|2-2-2\-|5-5-5\-|0-0-0\-|3-3\5-5-5-5| 
E|0-0-0\-|-------|-------|-----------| 
    *       *       *       * 

Chorus 

e|:-------|-------|-------|---------:|           
B|:-------|-------|-------|---------:|          
G|:-------|-------|-------|---------:|           
D|:-------|7-7-7-7|2-2-2-2|3-3---7-7:| x3     
A|:2-2-2-2|5-5-5-5|0-0-0-0|1-1---5-5:|          
E|:0-0-0-0|-------|-------|---------:|         




Pre-Chorus} 
e|----------|----------|----------|----------|----------|:------------:|---------| 
B|----------|----------|----------|----------|----------|:------------:|---------| 
G|----------|----------|----------|----------|----------|:------------:|---------| 
D|----------|----------|----------|----------|----------|:------------:|7-7------| 
A|----------|5--5--5--5|0--0--0--0|1--1--1---|5--5--5---|:---------0--:|5-5------| 
E|0--0--0--0|----------|----------|----------|----------|:0--2--3-----:|---------| 


Verse 

e|-------|-------|-------|-------|--------| 
B|-------|-------|-------|-------|--------| 
G|-------|-------|-------|-------|--------| 
D|-------|-------|-------|-------|--------| 
A|2-2----|2-2----|2-2----|5-5--7-|7-7-7---| 
E|0-0----|0-0----|0-0----|3-3--5-|5-5-5---| 


Outro 

e|:-------|-------|-------|-------:| 
B|:-------|-------|-------|-------:| 
G|:-------|-------|-------|-------:| 
D|:-------|7-7-7-7|2-2-2-2|3-3-7-7:| x4 
A|:2-2-2-2|5-5-5-5|0-0-0-0|1-1-5-5:| 
E|:0-0-0-0|-------|-------|-------:| 


Chorus 

e|:-------|-------|-------|---------:|           
B|:-------|-------|-------|---------:|          
G|:-------|-------|-------|---------:|           
D|:-------|7-7-7-7|2-2-2-2|3-3---7-7:| x4     
A|:2-2-2-2|5-5-5-5|0-0-0-0|1-1---5-5:|          
E|:0-0-0-0|-------|-------|---------:|         





************************************ 


| /   Slide up 
| \   Slide down 
| *   Palm mute 


************************************ 
  

top 5 | eav
top rock'n roll
Outras músicas do artista letras do(a) Eav
Top cifras »Top artistas »
Petaxxon Comunicação Online
Cifras.com.br - Melhor e mais completo site de cifras e tablaturas do Brasil
Mais de 1 milhão de acordes de músicas cadastradas desde 2003
As informações contidas no nosso site são colaborações de seus usuários e podem conter erros, sendo assim, não nos responsabilizamos sobre nenhuma destas.
close
menos
mais
close
Cor dos acordes:

Cor da letra:

 

save
close
close
 
redimensionar