Cifras e Tablaturas
Echosmith

Echosmith

Come Together

Cifras Cancelar Versão de Impressão Print

Echosmith - Come Together

Tom: F

  			e|---------10-12-----8-10-12-10---------10-12-----8-10-12-10-----------------| Intro  
B|---10-13---------8--------------10-13---------8----------------------------| 
G|---------------------------------------------------------------------------| 
D|---------------------------------------------------------------------------| 
A|---------------------------------------------------------------------------| 
E|---------------------------------------------------------------------------| 

e|---------------------------------------------------------------------------| Intro  
B|---------------------------------------------------------------------------| 
G|---2-5-7-9---0-5-7-9-7---2-5-7-9---0-5-7-9-7-------------------------------| 
D|---------------------------------------------------------------------------| 
A|---------------------------------------------------------------------------| 
E|---------------------------------------------------------------------------| 

e|---------------------------------------------------------------------------| verse 1  
B|---------------------------------------------------------------------------| 
G|---0---7-9-7---7-5-9-2-2-2-2-0---5-5---5-7-9-7---7-7-5-9-2-2-2-0h5---------| Here we are,with our backs  
D|---------------------------------------------------------------------------| against the wall/We've got  
A|---------------------------------------------------------------------------| big city dreams,but we don't 
E|---------------------------------------------------------------------------| move from the asphalt  

e|---------------------------------------------------------------------------| verse 1  
B|---------------------------------------------------------------------------| 
G|---0---7-9-7-7--7-7-7-5-7-9-7-5---7-5---9-7---7-7-5-7-9-2-2-2-0h5----------| We run away from our own  
D|--------------------------------------7------------------------------------| imagination/But at the same  
A|---------------------------------------------------------------------------| time, we've got this amazing 
E|---------------------------------------------------------------------------| fascination  

e|---------------------------------------------------------------------------| Pre-Chorus  
B|---------------------------------------------------------------------------| 
G|---5-5-5---5-5-2-5-7---5-5-5-2-5-5-2-5-7-----------------------------------| We've got hopes on the  
D|---------------------------------------------------------------------------| horizon/We can't stop  
A|---------------------------------------------------------------------------| climbing the mountain  
E|---------------------------------------------------------------------------| 

e|---------------------------------------------------------------------------| Pre-Chorus  
B|---------------------------------------------------------------------------| 
G|---5-5-2-5-2-2-5-2-5-7---9-9-7-7-5-5---------------------------------------| We're sick and tired of 
D|---------------------------------------------------------------------------| keeping silent/We are,  
A|---------------------------------------------------------------------------| we are,we are  
E|---------------------------------------------------------------------------| 

e|---------------------------------------------------------------------------| Chorus  
B|---------------------------------------------------------------------------| 
G|---5-5-4-4-2-5-7-9---2-2-2-0-5-7-9-7---5-5-4-4-2-5-7-9---2-2-2-0-5-7-9-7---| We are gonna come together/ 
D|---------------------------------------------------------------------------| We're gonna come together now/  
A|---------------------------------------------------------------------------| We are gonna run together/ 
E|---------------------------------------------------------------------------| We're gonna turn it upside  
                                                                               down 

e|---------------------------------------------------------------------------| Chorus  
B|---------------------------------------------------------------------------| 
G|---5-7-5-7-7-5-7-7-5-7-5-7---5-7-7-7-5-7-5-5-4-----------------------------| Cause with the smoke in the  
D|---------------------------------------------------------------------------| mirror I can't see your face/ 
A|---------------------------------------------------------------------------| So let's run to the fire  
E|---------------------------------------------------------------------------| escape  

e|---------------------------------------------------------------------------| Chorus   
B|---------------------------------------------------------------------------| 
G|---2-5-7-9---2-2-2-0-5-7-9-5---2-5-7-9---0-5-7-9-7-------------------------| Come together/We're gonna  
D|---------------------------------------------------------------------------| come together now  
A|---------------------------------------------------------------------------| 
E|---------------------------------------------------------------------------| 

e|---------------------------------------------------------------------------| verse 2  
B|---------------------------------------------------------------------------| 
G|---0---7-9-7---7-5-9-2-2-2-2-0---7-9-7---7-5-9-2-2-2-0h5-------------------| Who are they,with their so  
D|---------------------------------------------------------------------------| called innovations/They hold  
A|---------------------------------------------------------------------------| on,like they've found their  
E|---------------------------------------------------------------------------| own salvation  

e|---------------------------------------------------------------------------| verse 2  
B|---------------------------------------------------------------------------| 
G|---0---7-9-7-7--7-7-7-5-7-9-7-5---7-5---9-7---7-7-5-9-2-2-2-0h5------------| They shy away,from the  
D|--------------------------------------7------------------------------------| slightest alteration/But at  
A|---------------------------------------------------------------------------| the same time,they've got the 
E|---------------------------------------------------------------------------| same fascinations  

e|---------------------------------------------------------------------------| Pre-Chorus  
B|---------------------------------------------------------------------------| 
G|---5-5-5---5-5-2-5-7---5-5-5-2-5-5-2-5-7-----------------------------------| We've got hopes on the  
D|---------------------------------------------------------------------------| horizon/We can't stop  
A|---------------------------------------------------------------------------| climbing the mountain  
E|---------------------------------------------------------------------------| 

e|---------------------------------------------------------------------------| Pre-Chorus  
B|---------------------------------------------------------------------------| 
G|---5-5-2-5-2-2-5-2-5-7---9-9-7-7-5-5---------------------------------------| We're sick and tired of 
D|---------------------------------------------------------------------------| keeping silent/We are,  
A|---------------------------------------------------------------------------| we are,we are  
E|---------------------------------------------------------------------------| 

e|---------------------------------------------------------------------------| Chorus  
B|---------------------------------------------------------------------------| 
G|---5-5-4-4-2-5-7-9---2-2-2-0-5-7-9-7---5-5-4-4-2-5-7-9---2-2-2-0-5-7-9-7---| We are gonna come together/ 
D|---------------------------------------------------------------------------| We're gonna come together now/  
A|---------------------------------------------------------------------------| We are gonna run together/ 
E|---------------------------------------------------------------------------| We're gonna turn it upside  
                                                                               down 

e|---------------------------------------------------------------------------| Chorus  
B|---------------------------------------------------------------------------| 
G|---5-7-5-7-7-5-7-7-5-7-5-7---5-7-7-7-5-7-5-5-4-----------------------------| Cause with the smoke in the  
D|---------------------------------------------------------------------------| mirror I can't see your face/ 
A|---------------------------------------------------------------------------| So let's run to the fire  
E|---------------------------------------------------------------------------| escape  

e|---------------------------------------------------------------------------| Chorus   
B|---------------------------------------------------------------------------| 
G|---2-5-7-9---2-2-2-0-5-7-9-5---8H-6H-5H-3H---------------------------------| Come together/We're gonna  
D|---------------------------------------------------------------------------| come together now  
A|---------------------------------------------------------------------------| 
E|---------------------------------------------------------------------------| 

e|---------------------------------------------------------------------------| verse 3  
B|---------------------------------------------12H---------------------------| 
G|---9-9-2---2-2-0-7/9---9-12-12-9---7-5-5-12H-------------------------------| Just let go,it's a freefall/ 
D|---------------------------------------------------------------------------| We're almost home,it's a  
A|---------------------------------------------------------------------------| freefall  
E|---------------------------------------------------------------------------| 

e|---------------------------------------------------------------------------| Chorus Abridged   
B|---------------------------------------------------------------------------| 
G|---5-5-4-4-2-5-7-9---2-2-2-0-5-7-9-7---5-5-4-4-2-5-7-9---2-2-2-0-5-7-9-7---| We are gonna come together/ 
D|---------------------------------------------------------------------------| We're gonna come together now/  
A|---------------------------------------------------------------------------| We are gonna run together/ 
E|---------------------------------------------------------------------------| We're gonna turn it upside  
                                                                               down 

e|---------------------------------------------------------------------------| Chorus  
B|---------------------------------------------------------------------------| 
G|---5-5-4-4-2-5-7-9---2-2-2-0-5-7-9-7---5-5-4-4-2-5-7-9---2-2-2-0-5-7-9-7---| We are gonna come together/ 
D|---------------------------------------------------------------------------| We're gonna come together now/  
A|---------------------------------------------------------------------------| We are gonna run together/ 
E|---------------------------------------------------------------------------| We're gonna turn it upside  
                                                                               down 

e|---------------------------------------------------------------------------| Chorus  
B|---------------------------------------------------------------------------| 
G|---5-7-5-7-7-5-7-7-5-7-5-7---5-7-7-7-5-7-5-5-4-----------------------------| Cause with the smoke in the  
D|---------------------------------------------------------------------------| mirror I can't see your face/ 
A|---------------------------------------------------------------------------| So let's run to the fire  
E|---------------------------------------------------------------------------| escape  

e|---------------------------------------------------------------------------| Chorus   
B|---------------------------------------------------------------------------| 
G|---2-5-7-9---2-2-2-0-5-7-9-5-----------------------------------------------| Come together/We're gonna  
D|---------------------------------------------------------------------------| come together now  
A|---------------------------------------------------------------------------| 
E|---------------------------------------------------------------------------| 

e|---------------------------------------------------------------------------| Final x4 
B|---------------------3-3-3---------------------3-3-3-----------------------| 
G|---2-2-2-5-5-5-2-2-2---------2-2-2-5-5-5-2-2-2-----------------------------| 
D|---------------------------------------------------------------------------| 
A|---------------------------------------------------------------------------| 
E|---------------------------------------------------------------------------| 

************************************ 

Key:  

| /    Slide up 
| h    Hammer-on 
| H    Hold note  
| -    No pause  
| ---  Pause  

************************************ 
    	
fixar
fixar inscrever-se

enviado porenviado por: joaoewerton
cifra enviadaCorrigida por: sem correções
logo top cifrasComente
ico música do artistaMúsicas deste artista
ico curtiuCurtiu?
ico destaqueDestaque
Petaxxon Comunicação Online

Cifras.com.br - Melhor e mais completo site de cifras e tablaturas do Brasil Mais de 1 milhão de acordes de músicas cadastradas desde 2003
As informações contidas no nosso site são colaborações de seus usuários e podem conter erros, sendo assim, não nos responsabilizamos sobre nenhuma destas.

close
menos
mais
close
Cor dos acordes:

Cor da letra:

close
Alinhar acordes a direita Alinhar acordes a esquerda Alinhar acordes em baixo Alinhar acordes no topo
close
  Mostrar todos os acordes Esconder acordes muito fáceis Esconder acordes fáceis Esconder acordes intermediários
redimensionar
glossário