Cifras e Tablaturas
Echosmith

Echosmith

Cool Kids (acoustic)

Cifras Cancelar Versão de Impressão Print

Echosmith - Cool Kids (acoustic)

Tom:

  			

Tuning: Standard,  
 



I tried to put most of the notes you pluck but you basically continue strumming the 
chords throughout. I suggest watching the video for clarification on strumming/palm muting 

Intro(Same as Chorus) 

Verse 
e|---0------------------------------------------------| 
B|---0-----0-------0---0----0-----0--0---1p0---0------| 
G|---0-----0---2-2---2------0--0--0--0---------0------| Repeat 
D|---2-----0h2---2---2------0-----0--0---------0------| 
A|---2-----3-----3---3------2-----2--0h2-------2------| 
E|---0----------------------3-----3--3---------3------| 

Chorus 
e|---0---------------------------0--0----0----| 
B|---0-----0-------0---0---0-----0--3p0--0----| 
G|---0-----0---2-2---2-----0-----0--0----0----| Repeat 
D|---2-----0h2---2---2-----0-----4--4----4----| 
A|---2-----3-----3---3-----2-----5--5----5----| 
E|---0---------------------3------------------| 

Bridge(Same as Chorus) 



************************************ 

| /   slide up 
| \   slide down 
| h   hammer-on 
| p   pull-off 
| ~   vibrato 
| +   harmonic 
| x   Mute note 
| b   Bend 
| pb  Pre-bend 
| br  Bend release 
| pbr Pre-bend release 
| brb Bend release bend 

************************************ 
    	
fixar
fixar inscrever-se

enviado porenviado por: deivcavalcanti
cifra enviadaCorrigida por: sem correções
logo top cifrasComente
ico música do artistaMúsicas deste artista
ico curtiuCurtiu?
ico destaqueDestaque
Petaxxon Comunicação Online

Cifras.com.br - Melhor e mais completo site de cifras e tablaturas do Brasil Mais de 1 milhão de acordes de músicas cadastradas desde 2003
As informações contidas no nosso site são colaborações de seus usuários e podem conter erros, sendo assim, não nos responsabilizamos sobre nenhuma destas.

close
menos
mais
close
Cor dos acordes:

Cor da letra:

close
Alinhar acordes a direita Alinhar acordes a esquerda Alinhar acordes em baixo Alinhar acordes no topo
close
  Mostrar todos os acordes Esconder acordes muito fáceis Esconder acordes fáceis Esconder acordes intermediários
redimensionar
glossário