Cifras e Tablaturas
Ed Sheeran

Ed Sheeran

Make It Rain

Cifras Cancelar Versão de Impressão

Ed Sheeran - Make It Rain

Tom: C#m

  			



I'd transcribed the two eletric guitars (Trully, I think that is three guitars, but I "convert" for two). 
Any mistakes, feel free to contact me. 

Same chords trough the whole song. 

Guitar I - lead guitar (strum) 
Guitar II - second guitar (solo) 

----- 
INTRO 
----- 
   GUITAR I 
            C#m                G#m              D#               G#m 
e|----------4-x----------------4-x-------------6-x---------------4x----------| 
B|----------5-x----------------4-x-------------8-x---------------4x----------| 
G|-------4--6-x----------------4-x----------6--8-x---------------4x----------| 
D|-----6----6-x-------5/6---4--6-x--------8----8-x---------------6x----------| 
A|---4------4-x-------5/6------6-x------6------6-x------4h6------6x----------| 
E|--------------------3/4------4-x----------------------4--------4x----------| 
 | GUITAR II 
e|---------------------------------------------------------------------------| 
B|---------------------------------------------------------------------------| 
G|------------------------------------------------------------------------4--| 
D|--------------------------------------------------------------------4h6----| 
A|---------------------------------------------------------------------------| 
E|---------------------------------------------------------------------------| 

   GUITAR I 
e|----------4-x---------------4-x---------------6-x---------------4x---------| 
B|--5~------5-x-------4~------4-x-------8~------8-x-------4~------4x------4--| 
G|--6~------6-x-------4~------4-x-------8~------8-x-------6~------4x----4----| 
D|--6~------6-x-------6~------6-x-------8~------8-x-------6~------6x---------| 
A|--4~------4-x-------6~------6-x-------6~------6-x-------4~------6x---------| 
E|--------------------4~------4-x-------------------------4~------4x---------| 
 | GUITAR II 
e|---------------------------------------------------------------------------| 
B|---------------------------------------------------------------------------| 
G|--6~----------4h6-4---------------4-7/8~---------4/6-\4-----------------4--| 
D|--------------------6~----------6-----------------------6~----------4h6----| 
A|---------------------------------------------------------------------------| 
E|---------------------------------------------------------------------------| 

   GUITAR I 
e|----------4-x---------------4-x---------------6-x---------------4x---------| (The notes inside 
B|--5~------5-x--5-4-(4~)-----4-x---4-/-8~------8-x-8-\-4-(4~)----4x---------| ( ) means that  
G|-(6~)-----6-x-------4~------4-x-4----(8~)-----8-x--------4~-----4x---------| chords are played 
D|-(6~)-----6-x------(6~)-----6-x------(8~)-----8-x-------(6~)----6x---------| at same time at 
A|-(4~)-----4-x------(6~)-----6-x------(6~)-----6-x-------(4~)----6x---------| solo. Just do it  
E|-------------------(4~)-----4-x-------------------------(4~)----4x---------| if you can.) 
 | GUITAR II 
e|---------------------------------------------------------------------------| 
B|---------------------------------------------------------------------------| 
G|--6~----------4h6-4---------------4-7/8~---------4/6-\4--------------------| 
D|--------------------6~----------6-----------------------6~-----------------| 
A|---------------------------------------------------------------------------| 
E|---------------------------------------------------------------------------| 

------- 
VERSE I 
------- 
 "When the sins of my father..." 

  GUITAR 1 
e|----------4-x----------------4-x-------------6-x---------------4x----------| 
B|----------5-x----------------4-x-------------8-x---------------4x----------| 
G|-------4--6-x----------------4-x----------6--8-x---------------4x----------|  (x4) 
D|-----6----6-x-------5/6---4--6-x--------8----8-x---------------6x----------| 
A|---4------4-x-------5/6------6-x------6------6-x------4h6------6x----------| 
E|--------------------3/4------4-x----------------------4--------4x----------| 
                                                                     |--- Last time  
                GUITAR I            GUITAR II                     transition to Chorus 
              e|---------|        e|---------|                           | 
              B|------4--|        B|---------|                           | 
              G|----4----|        G|------4--|                   --------| 
              D|---------|        D|--4h6----| 
              A|---------|        A|---------| 
              E|---------|        E|---------| 
  
------ 
Chorus 
------ 
 "Make it rain..." 

   GUITAR I 
e|----------4-x---------------4-x---------------6-x---------------4x---------| 
B|--5~------5-x--5-4-(4~)-----4-x---4-/-8~------8-x-8-\-4-(4~)----4x------4--| 
G|-(6~)-----6-x-------4~------4-x-4----(8~)-----8-x--------4~-----4x----4----| 
D|-(6~)-----6-x------(6~)-----6-x------(8~)-----8-x-------(6~)----6x---------| 
A|-(4~)-----4-x------(6~)-----6-x------(6~)-----6-x-------(4~)----6x---------|  
E|-------------------(4~)-----4-x-------------------------(4~)----4x---------| 
 | GUITAR II                                                                    (x2) 
e|---------------------------------------------------------------------------| 
B|---------------------------------------------------------------------------| 
G|--6~----------4h6-4---------------4-7/8~---------4/6-\4-----------------4--| 
D|--------------------6~----------6-----------------------6~----------4h6----| 
A|---------------------------------------------------------------------------| 
E|---------------------------------------------------------------------------| 

--------             ------ 
VERSE II  - (same as Chorus)   (x4) 
--------             ------  

---------           ------ 
Chorus II  (same as Chorus, except that the two guitars strum sometimes.) 
---------           ------ 

---- 
SOLO 
---- 
Transition to solo -- GUITAR II   (blues distortion) 
e|-------------------| 
B|--------------4h7--| 
G|-----------4h6-----| 
D|--------4h6--------| 
A|-----4h6-----------| 
E|--4h7--------------|   

  GUITAR I 
e|----------4-x----------------4-x----------------6-x---------------4x-------------| 
B|--5~------5-x---5-4-(4~)-----4-x----4-/-8~------8-x-8-\-4-(4~)----4x-------------| 
G|-(6~)-----6-x--------4~------4-x--4----(8~)-----8-x--------4~-----4x-------------| 
D|-(6~)-----6-x-------(6~)-----6-x-------(8~)-----8-x-------(6~)----6x-------------| 
A|-(4~)-----4-x-------(6~)-----6-x-------(6~)-----6-x-------(4~)----6x-------------|  
E|--------------------(4~)-----4-x--------------------------(4~)----4x-------------| 
 | GUITAR II                                                                    
e|--------------------------------------------------------------------------7-9b11-| 
B|--------7-7------------------------------------------------------------7h9-------| 
G|--6~------6b8br(6)-4---------8b-------------------------------------6h8----------| 
D|---------------------6~----9-9--6-9~-6---5~--------------5-6~----6h9-------------| 
A|---------------------------------------6-------------4/6-------------------------| 
E|---------------------------------------------------------------------------------| 

GUITAR I 
e|----------4-x----------------4-x-----------------------6-x-----------------------| 
B|--5~------5-x---5-4-(4~)-----4-x-----4-/-8~------------8-x---8-\-4-(4~)----------| 
G|-(6~)-----6-x--------4~------4-x---4----(8~)-----------8-x----------4~-----------| 
D|-(6~)-----6-x-------(6~)-----6-x--------(8~)-----------8-x---------(6~)----------| 
A|-(4~)-----4-x-------(6~)-----6-x--------(6~)-----------6-x---------(4~)----------|  
E|--------------------(4~)-----4-x-----------------------------------(4~)----------| 
 | GUITAR II                                                                    
e|--9~------(7-10b)-7-7------------------------------------------------------------| 
B|--------------------7h9~-------7--7--7--7--7--7------------7---------------x-----| 
G|---------------------------6h8--8--8--8--8--8--8x---6--6/8---6-/-4---------x-----| 
D|---------------------------6----6--6--6--6--6-----9---9-------------6~~-/--x-----| 
A|---------------------------------------------------------------------------------| 
E|---------------------------------------------------------------------------------| 



---------               -------                 -------- 
VERSE III  -  (play the VERSE I 2x and then the VERSE II 2x) 
---------               -------                 -------- 
                                                                     |--- Last time  
                GUITAR I            GUITAR II                     transition to Chorus 
              e|---------|        e|------------------|                           | 
              B|------4--|        B|--7---7-4---------|                           | 
              G|----4----|        G|--6h8-6-4-3-4-6~--|                   --------| 
              D|---------|        D|--6---6-4---------| 
              A|---------|        A|------------------| 
              E|---------|        E|------------------| 
----------            --------- 
Chorus III similar as Chorus II, with a variations on GUITAR II. 
----------            --------- 

   GUITAR I 
e|-------4-x-------------4-x----------------------6-x---------------4x-----------------| 
B|--5~---5-x---5-4-(4~)--4-x----------4---/--8~---8-x-8-\-4-(4~)----4x-----------4-----| 
G|-(6~)--6-x--------4~---4-x------4---------(8~)--8-x--------4~-----4x------4----------| 
D|-(6~)--6-x-------(6~)--6-x----------------(8~)--8-x-------(6~)----6x-----------------| 
A|-(4~)--4-x-------(6~)--6-x----------------(6~)--6-x-------(4~)----6x-----------------|  
E|-----------------(4~)--4-x--------------------------------(4~)----4x-----------------| 
 | GUITAR II                                                                   
e|-------------------------------------------------------------------------------------| 
B|---------6hb7-4------------------4------------------------------------12--12-9~-12---| 
G|---------------6-4-------------4-4h6p4-(4)-6b8~---------------------11--11-----------| 
D|------------------6~-------4h6---4------------------------------9h13-----------------| 
A|------------------------4h6----------------------------------------------------------| 
E|-------------------------------------------------------------------------------------| 

   GUITAR I 
e|-------4-x---------------4-x------------------------6-x------------------------------| 
B|--5~---5-x--5-4-(4~)-----4-x-----------4---/---8~---8-x-8-\-4-(4~)-------------------| 
G|-(6~)--6-x-------4~------4-x-------4----------(8~)--8-x--------4~--------------------| 
D|-(6~)--6-x------(6~)-----6-x------------------(8~)--8-x-------(6~)-------------------| 
A|-(4~)--4-x------(6~)-----6-x------------------(6~)--6-x-------(4~)-------------------|  
E|----------------(4~)-----4-x----------------------------------(4~)-------------------| 
 | GUITAR II                                                                    
e|-11hb~-------------10b11-------------------------------------------------------------| 
B|------------------------9---12-9-------------------------------------------12-----12-| 
G|-------------------------11-11--11---11-----------------------------13-------11h13---| 
D|----------------------------------13-11h13p11--11b13~-----------------11h13----------| 
A|---------------------------------------------14----------------11h14-----------------| 
E|-------------------------------------------------------------------------------------| 
  GUITAR II 
e|---------|                        ------ 
B|-12h14~--|  *Then play 2x same as Chorus, and 2x only the chords. 
G|---------|                        ------ 
D|---------|  *The last 4 "Make it rain" are a capella. 
A|---------| 
E|---------| 


                  
-------------------------------------------\\------------------------------------------- 

************************************ 

| /   slide up 
| \   slide down 
| h   hammer-on 
| p   pull-off 
| ~   vibrato 
| +   harmonic 
| x   Mute note 
| b   Bend 
| pb  Pre-bend 
| br  Bend release 
| pbr Pre-bend release 
| brb Bend release bend 
| hb  Half bend (1/2 tone) 

************************************ 
    	
fixar
fixar inscrever-se

enviado porenviado por: gustsilva
cifra enviadaCorrigida por: sem correções
logo top cifrasComente
ico música do artistaMúsicas deste artista
ico curtiuCurtiu?
ico destaqueDestaque
Petaxxon Comunicação Online

Cifras.com.br - Melhor e mais completo site de cifras e tablaturas do Brasil Mais de 1 milhão de acordes de músicas cadastradas desde 2003
As informações contidas no nosso site são colaborações de seus usuários e podem conter erros, sendo assim, não nos responsabilizamos sobre nenhuma destas.

close
menos
mais
close
Cor dos acordes:

Cor da letra:

close
Alinhar acordes a direita Alinhar acordes a esquerda Alinhar acordes em baixo Alinhar acordes no topo
close
  Mostrar todos os acordes Esconder acordes muito fáceis Esconder acordes fáceis Esconder acordes intermediários
redimensionar
glossário