Cifras e Tablaturas
Ed Sheeran

Ed Sheeran

Small Bump

Cifras Cancelar Versão de Impressão

Ed Sheeran - Small Bump

Tom: Em

  			(acoustic)

Tuning: Standard  
 or 4 


Intro, Verse and Chorus riff: 

                   \/                  \/    \/ 
e|---------------------------------------------------------------------------| 
B|----------------------------------------3--3-------------------------------| 
G|-0-----0----0----0--0----0-----0--0--0--2--2-------------------------------| 
D|-2----2----4----4---0h2--0----0---0--0-------------------------------------| 
A|-----2----2----2----3--------2----2--2-------------------------------------| 
E|-0-----------------------3-------------------------------------------------| 
                  

Pre-Chorus and Bridge: 

                \/        \/               \/       \/ 
e|---------------------------------------------------------------------------| 
B|-1----1--------------------------------------------------------------------| 
G|-2---2----0----0----0----0---0-----0---0---0---0---0-----------------------| 
D|-2--2-----2----2----2----2---0----0----0---0---0---0-----------------------| 
A|----------3----3----3----3-------2-----2---2---2---2-----------------------| 
E|-----------------------------3---------------------------------------------| 
                \/      \/ 
e|---------------------------------------------------------------------------| 
B|-1----1-------------------0--3---------------------------------------------| 
G|-2---2----0---0---0---0---0--2---------------------------------------------| 
D|-2--2-----2---2---2---2----------------------------------------------------| 
A|----------3---3---3---3---2------------------------------------------------| 
E|---------------------------------------------------------------------------| 


Lyrics: 

You're just a small bump unborn, in four months you're brought to life 
Might be left with my hair, but you'll have your mother's eyes. 
I'll hold your body in my hands, be as gentle as I can  
But for now you're scans of an unmade plan, 
A small bump, in four months you're brought to life 

Pre-Chorus 
I'll whisper quietly, give you nothing but truth, 
If you're not inside me, I'll put my future in you. 

Chorus: 
'Cause you are my one and only, 
You can wrap your fingers round my thumb, and hold me tight 
Oh you are my one and only, 
You can wrap your fingers round my thumb, and hold me tight 
And you will be alright.  

You're just a small bump unknown, you'll grow into your skin 
With a smile like hers, and a dimple beneath your chin. 
Fingernails the size of a half grain of rice, 
And eyelids closed to be soon open wide, 
A small bump, in four months you'll open your eyes. 

Pre-Chorus 

Chorus 

Bridge: 
And you can lie with me, with your tiny feet, 
when you're half-asleep I'll leave you be, 
Right in front of me for a couple weeks 
So I can keep you safe 

Chorus 

You were just a small bump unborn 
Just four months then torn from life. 
Maybe you were needed up there, 
But we're still unaware 
As why 


************************************ 

| \/ single strum upwards 
| h   hammer-on 

************************************ 
    	
fixar
fixar inscrever-se

enviado porenviado por: abelamin
cifra enviadaCorrigida por: sem correções
logo top cifrasComente
ico música do artistaMúsicas deste artista
ico curtiuCurtiu?
ico destaqueDestaque
Petaxxon Comunicação Online

Cifras.com.br - Melhor e mais completo site de cifras e tablaturas do Brasil Mais de 1 milhão de acordes de músicas cadastradas desde 2003
As informações contidas no nosso site são colaborações de seus usuários e podem conter erros, sendo assim, não nos responsabilizamos sobre nenhuma destas.

close
menos
mais
close
Cor dos acordes:

Cor da letra:

close
Alinhar acordes a direita Alinhar acordes a esquerda Alinhar acordes em baixo Alinhar acordes no topo
close
  Mostrar todos os acordes Esconder acordes muito fáceis Esconder acordes fáceis Esconder acordes intermediários
redimensionar
glossário