Cifras e Tablaturas
Ed Sheeran

Ed Sheeran

Touch And Go

Cifras Cancelar Versão de Impressão

Ed Sheeran - Touch And Go

Tom: Em

  			 


Intro: 
(x2) 
       Em                C      G  D  Em                C      G  D 
e|---------------------------------2------------------------------2--------------------| 
B|-----------------------0h1-1--0--3--------------------0h1-1--0--3--------------------| 
G|-----2h4p2p0-----2p0---0---0--0--2--2h4p2p0-----2p0---0---0--0--2--------------------| 
D|-------------2p0-------2---2--0--0----------2p0-------2---2--0--0--------------------| 
A|-----------------------3---3--------------------------3---3--------------------------| 
E|------------------------------3------------------------------3-----------------------| 

Verse: 
(x2) 
       G  Bm   C            D  Em   C 
e|--------------------------2----------------------------------------------------------| 
B|-----0--3----1---1-1---1--3--0----1---1-1---1----------------------------------------| 
G|-----0--4----0---0-0---0--2--0----0---0-0---0----------------------------------------| 
D|-----0--4----0h2-2-0h2-2--0--2----0h2-2-0h2-2----------------------------------------| 
A|--------2----3---3-3---3----------3---3-3---3----------------------------------------| 
E|-----3-----------------------0-------------------------------------------------------| 

Pre-Chorus 

       Bm Em C         D       Bm C  Bm Em   Bm Em C         C     G D 
e|---------------------2-0-2-3---------------------------------------2-2-2-2-2-2-2-2---| 
B|-----3--0--1-1-1-1---3-3-3-3-3--5--3--0----3--0--1-1-1-1---1-1-1-0-3-3-3-3-3-3-3-3---| 
G|-----4--0--0-0-0-0---2-2-2-2-4--5--4--0----4--0--0-0-0-0---0-0-0-0-2-2-2-2-2-2-2-2---| 
D|-----4--2--0-2-0-2---0-0-0-0-4--5--4--2----4--2--0-2-0-2---3-2-0-0-0-0-0-0-0-0-0-0---| 
A|-----2-----3-3-3-3-----------2--3--2-------2-----3-3-3-3---3-3-3---------------------| 
E|--------0-----------------------------0-------0------------------3-------------------| 


refrão
Em C G If you say go, D Em C G I would stop everything oh D Em C G My heart would play the role now D Em C And act like it's never been broke G D Em C Though my soul, oh oh oh G D Em C Lately I really need to know G D Em C How long, how long, can we be touch and go G D Em C Oh my soul, oh oh oh G D How long, how long, can we be touch and go
Middle 8: Em C G D Em C G D e|---------------------------------2------------------------------2--------------------| B|-----------------------0h1-1--0--3--------------------0h1-1--0--3--------------------| G|-----2h4p2p0-----2p0---0---0--0--2--2h4p2p0-----2p0---0---0--0--2--------------------| D|-------------2p0-------2---2--0--0----------2p0-------2---2--0--0--------------------| A|-----------------------3---3--------------------------3---3--------------------------| E|------------------------------3------------------------------3-----------------------| Verse: (x2) G Bm C D Em C e|--------------------------2----------------------------------------------------------| B|-----0--3----1---1-1---1--3--0----1---1-1---1----------------------------------------| G|-----0--4----0---0-0---0--2--0----0---0-0---0----------------------------------------| D|-----0--4----0h2-2-0h2-2--0--2----0h2-2-0h2-2----------------------------------------| A|--------2----3---3-3---3----------3---3-3---3----------------------------------------| E|-----3-----------------------0-------------------------------------------------------| Pre-Chorus Bm Em C D Bm C Bm Em Bm Em C C G D e|---------------------2-0-2-3---------------------------------------2-2-2-2-2-2-2-2---| B|-----3--0--1-1-1-1---3-3-3-3-3--5--3--0----3--0--1-1-1-1---1-1-1-0-3-3-3-3-3-3-3-3---| G|-----4--0--0-0-0-0---2-2-2-2-4--5--4--0----4--0--0-0-0-0---0-0-0-0-2-2-2-2-2-2-2-2---| D|-----4--2--0-2-0-2---0-0-0-0-4--5--4--2----4--2--0-2-0-2---3-2-0-0-0-0-0-0-0-0-0-0---| A|-----2-----3-3-3-3-----------2--3--2-------2-----3-3-3-3---3-3-3---------------------| E|--------0-----------------------------0-------0------------------3-------------------| Chorus: Bridge: D/F# G Cadd9 G D/F# G Cadd9 Em D/F# G Cadd9 e|-------------------------------------------------------------------------------------| B|-----3-3-3-3-3-3---3-3---3-3-3-3-3-3---0-0---3-3-3-3-3-3-----------------------------| G|-----2-0-2-0-0-0---0-0---2-0-2-0-0-0---0-0---2-0-2-0-0-0-----------------------------| D|-----0-0-0-0-2-2---0-0---0-0-0-0-2-2---2-2---0-0-0-0-2-2-----------------------------| A|-------------3-3-----------------3-3-----------------3-3-----------------------------| E|-----2-2-3-3-------3-3---2-2-2-3-------0-0---2-2-3-3---------------------------------| Chorus: Outro: Em C G D Em C G D Em e|---------------------------------2------------------------------2--------------------| B|-----------------------0h1-1--0--3--------------------0h1-1--0--3--------------------| G|-----2h4p2p0-----2p0---0---0--0--2--2h4p2p0-----2p0---0---0--0--2---2h4p2p0-----2p0--| D|-------------2p0-------2---2--0--0----------2p0-------2---2--0--0-----------2p0------| A|-----------------------3---3--------------------------3---3--------------------------| E|------------------------------3------------------------------3-----------------------|
fixar
fixar inscrever-se

enviado porenviado por: joaoewerton
cifra enviadaCorrigida por: sem correções
logo top cifrasComente
ico música do artistaMúsicas deste artista
ico curtiuCurtiu?
ico destaqueDestaque
Petaxxon Comunicação Online

Cifras.com.br - Melhor e mais completo site de cifras e tablaturas do Brasil Mais de 1 milhão de acordes de músicas cadastradas desde 2003
As informações contidas no nosso site são colaborações de seus usuários e podem conter erros, sendo assim, não nos responsabilizamos sobre nenhuma destas.

close
menos
mais
close
Cor dos acordes:

Cor da letra:

close
Alinhar acordes a direita Alinhar acordes a esquerda Alinhar acordes em baixo Alinhar acordes no topo
close
  Mostrar todos os acordes Esconder acordes muito fáceis Esconder acordes fáceis Esconder acordes intermediários
redimensionar
glossário