Cifras e Tablaturas
Eden

Eden

Crash

Cifras Cancelar Versão de Impressão

Eden - Crash

Tom:

  			
Intro 
e|-11-------------------------|--------------------------------| 
B|-----11---------------------|--------------------------------| 
G|---------12------13--12---7-|--5--7---13--11--5--8--7--------| 
D|----------------------------|--------------------------------| 
A|-13--10---------------------|--------12--10------------------| 
E|---------11------13--11--6--|--4--6----------4--8--6---------| 

e|-11-------------------------|----------------------------------| 
B|-----11---------------------|----------------------------------| 
G|---------12------13--12---7-|--5--7---13--11--8--7--8----------| 
D|----------------------------|---------------------------13--12-| 
A|-13--10---------------------|--------12--10--------------------| 
E|---------11------13--11--6--|--4--6----------8--6--8---12--11--| 

Pre-Chorus 
e|-------------------------------------------| 
B|-------------------------------------------| 
G|-------------------------------------------| 
D|----13----12---10-------13----12------10---| 
A|-------------------------------------------| 
E|---11----10---8---------11-----10------8----| 

Chorus 
e|----------------------------------------------------------------------------------------------| 
B|----------------------------------------------------------------------------------------------| 
G|----------------------------------------------------------------------------------------------| 
D|-------6----6----6----6----6---6---10----10---10----10----10----10---8----8----8---8---8---8--| 
A|-----6----6----6----6----6---6----10----10---10----10----10---10----8----8----8---8---8--8----| 
E|---4----4----4----4----4----4----8----8-----8-----8-----8-----8----6----6----6---6--6--6------| 

Bridge 
e|--------------------------------------------------------------------------| 
B|--------------------------------------------------------------------------| 
G|--------------------------------------------------------------------------| 
D|------2----2----2------6----6----6--------10-----10-----10----8----8----8-| 
A|----2----2----2------6----6----6-------10-----10-----10-----8----8----8---| 
E|--1----1----1------4----4----4-------8------8------8------6----6----6-----| 

e|-----------------------------------------------------------------------------------------------| 
B|-----------------------------------------------------------------------------------------------| 
G|-----------------------------------------------------------------------------------------------| 
D|-----3----3----3----3-----3----3------5----5----5--5----5----5-----6----6----6----6----6----6--| 
A|---3----3----3----3-----3----3------5----5----5---5----5----5----6----6----6-----6----6----6---| 
E|-1----1----1----1-----1----1------3----3----3---3----3----3-----4----4----4-----4----4----4----| 

e|--------------------------------------| 
B|--------------------------------------| 
G|--------------------------------------| 
D|------10-----10---10---8----8---8-----| 
A|----10-----10---10----8----8---8------| 
E|---8------8----8-----6----6---6-------| 

(repeat this line as necessary) 
e|--------------------------------------------------------------------------| 
B|--------------------------------------------------------------------------| 
G|--------------------------------------------------------------------------| 
D|------2----2----2------6----6----6--------10-----10-----10----8----8----8-| 
A|----2----2----2------6----6----6-------10-----10-----10-----8----8----8---| 
E|--1----1----1------4----4----4-------8------8------8------6----6----6-----| 

(this is repeated going into the outro) 
e|------------------------| 
B|------------------------| 
G|------------------------| 
D|------6-----6-----6-----| 
A|----6-----6-----6-------| 
E|--4-----4-----4---------| 

Outro 
e|-11-------------------------|--------------------------------| 
B|-----11---------------------|--------------------------------| 
G|---------12------13--12---7-|--5--7---13--11--5--8--7--------| 
D|----------------------------|--------------------------------| 
A|-13--10---------------------|--------12--10------------------| 
E|---------11------13--11--6--|--4--6----------4--8--6---------| 
    	
fixar
fixar inscrever-se

enviado porenviado por: ubirbomfim
cifra enviadaCorrigida por: sem correções
logo top cifrasComente
ico música do artistaMúsicas deste artista
ico curtiuCurtiu?
ico destaqueDestaque
Petaxxon Comunicação Online

Cifras.com.br - Melhor e mais completo site de cifras e tablaturas do Brasil Mais de 1 milhão de acordes de músicas cadastradas desde 2003
As informações contidas no nosso site são colaborações de seus usuários e podem conter erros, sendo assim, não nos responsabilizamos sobre nenhuma destas.

close
menos
mais
close
Cor dos acordes:

Cor da letra:

close
Alinhar acordes a direita Alinhar acordes a esquerda Alinhar acordes em baixo Alinhar acordes no topo
close
  Mostrar todos os acordes Esconder acordes muito fáceis Esconder acordes fáceis Esconder acordes intermediários
redimensionar
glossário