Cifras e Tablaturas
Edguy

Edguy

Roses to Noone

Cifras Cancelar Versão de Impressão Print

Edguy - Roses to Noone

Tom: Gb

  			Tablature explanation: 
 
h  = hammer on             .   = Palm mute 
p  = pull off              A.H = Artificial harmonics 
b  = Bend                  pb  = prebend 
r  = release bend          s   = slide 
 
All guitars are 1/2 downed 
 
 
{Intro} 
                           Slide whole position up to Gb 
eb||------------------|----------------|---------0-------|----------------| 
Bb||------0-0h1p0-----|----1---0h1-----|s----3-----3-----|----------------| 
Gb||----2---------2---|--2---2-----2---|s--4---4-----4---|----0-2-0-------| 
Db||--2-------------0-|3-------------3-|s5-------------0-|--2---3-2-3-2-0-| 
Ab||0-----------------|----------------|-----------------|3---------5-3-2-| 
Eb||------------------|----------------|-----------------|----------------| 
                                                         |                | 
                                                      eb||----------------| 
                                                      Bb||8pb10---release-| 
                                                      Gb||---------slowly-| 
                                                      Db||----------------| 
                                                      Ab||----------------| 
                                                      Eb||----------------| 
 
                           Slide whole position up to Gb 
eb||------------------|----------------|---------0-------|----------------| 
Bb||------0-0h1p0-----|----1---0h1-----|s----3-----3-----|----------------| 
Gb||----2---------2---|--2---2-----2---|s--4---4-----4---|----0-2-0-------| 
Db||--2-------------0-|3-------------3-|s5-------------0-|--2---3-2-3-2-0-| 
Ab||0-----------------|----------------|-----------------|3---------5-3-2-| 
Eb||------------------|----------------|-----------------|----------------| 
  ||                                                                      | 
eb||------------------|----------------|-----------------|----------------| 
Bb||8~----------------|----------------|-----------------|----------------| 
Gb||------------------|----------------|-------------5h7p|5--s9--7--------| 
Db||------------------|----------------|-----------------|---s10-9-10-7---| 
Ab||------------------|----------------|-----------------|--------------10| 
Eb||------------------|----------------|-----------------|----------------| 
 
 
{Verse 1} 
 
eb||--------5-------|--------3-------|--------5-------|--------3-------| 
Bb||------5---5---5-|------3---3---3-|------5---5---5-|------3---3---3-| 
Gb||----5-------5---|----4-------4---|----5-------5---|----4-------4---| 
Db||--7-------------|--5-------------|--7-------------|--5-------------| 
Ab||0---------------|0---------------|0---------------|0---------------| 
Eb||----------------|----------------|----------------|----------------| 
  ||                                                                   | 
eb||----------------|----------------|----------------|----------------| 
Bb||----------------|------------9h10|9~--------------|---------8h10-8-| 
Gb||----------------|----------------|----------------|----------------| 
Db||7---------------|----------------|----------------|----------------| 
Ab||----------------|----------------|----------------|----------------| 
Eb||----------------|----------------|----------------|----------------| 
 
eb||--------1-------|--------1-------|--------0-------|--------7-------| 
Bb||----1-----1---1-|----1-----1---1-|------1---1-----|------8---8-----| 
Gb||--2---2-----2---|--2---2-----2---|----2-------2---|----9-------9---| 
Db||3---------------|3---------------|--2-----------0-|--9-----------9-| 
Ab||----------------|----------------|0---------------|7---------------| 
Eb||----------------|----------------|----------------|----------------| 
  ||                                                                   | 
eb||----------------|----------------|-------------------------|-------| 
Bb||10--------------|----------------|--------13b15-13---12----|-------| 
Gb||----------------|----------------|----------------------14-|12-----| 
Db||----------------|----------------|-------------------------|-------| 
Ab||----------------|----------------|-------------------------|-------| 
Eb||----------------|----------------|-------------------------|-------| 
 
 
{Verse 2} 
 
eb||--------5-------|--------3-------|--------5-------|--------3-------| 
Bb||------5---5---5-|------3---3---3-|------5---5---5-|------3---3---3-| 
Gb||----5-------5---|----4-------4---|----5-------5---|----4-------4---| 
Db||--7-------------|--5-------------|--7-------------|--5-------------| 
Ab||0---------------|0---------------|0---------------|0---------------| 
Eb||----------------|----------------|----------------|----------------| 
  ||                                                                   | 
eb||----------------|----------------|----------------|----------------| 
Bb||----------------|----------------|----------------|----------------| 
Gb||----------------|------9--10-9--7|5---------------|-----9h10-9-7-b9| 
Db||----------------|------10-12-10-9|7---------------|----------------| 
Ab||----------------|----------------|----------------|----------------| 
Eb||----------------|----------------|----------------|----------------| 
 
eb||--------1-------|--------1-------|--------0-------|--------7-------| 
Bb||----1-----1---1-|----1-----1---1-|------1---1-----|------8---8-----| 
Gb||--2---2-----2---|--2---2-----2---|----2-------2---|----9-------9---| 
Db||3---------------|3---------------|--2-----------0-|--9-----------9-| 
Ab||----------------|----------------|0---------------|7---------------| 
Eb||----------------|----------------|----------------|----------------| 
  ||                                                                   |Join the bridge... 
eb||----------------|----------------|----------------|----------------|----| 
Bb||----------------|----------------|----------------|------10---8-10-|8---| 
Gb||----------------|----------------|----------------|---------9------|----| 
Db||10--------------|----------------|----------------|----------------|----| 
Ab||----------------|----------------|----------------|----------------|----| 
Eb||----------------|----------------|----------------|----------------|----| 
 
 
{Bridge} 
    B                Bmaj7/Bb         Abm              Gb 
eb||----------0-----|----------0-----|----------0-----|--------0-------| 
Bb||------1-3---3-1-|------1-3---3-1-|------1-3---3-1-|------0-1-3-1-0-| 
Gb||----0-----------|----0-----------|----2-----------|----0-----------| 
Db||--2-------------|--2-------------|--2-------------|--0-------------| 
Ab||3---------------|2---------------|0---------------|----------------| 
Eb||----------------|----------------|----------------|3---------------| 
 
    E                                 B                Gb 
eb||----------0-----|----------0-----|----------0-----|----------------| 
Bb||----1---3---3---|----1---3---3---|------1-3---3-1-|------0-3-1-0---| 
Gb||--2---2-------2-|--2---2-------2-|----0-----------|----0---------0-| 
Db||3---------------|3---------------|--2-------------|--0-------------| 
Ab||----------------|----------------|3---------------|----------------| 
Eb||----------------|----------------|----------------|3---------------| 
 
    B                Bmaj7/Bb         Abm              Gb 
eb||----------0-----|----------0-----|----------0-----|--------0-------| 
Bb||------1-3---3-1-|------1-3---3-1-|------1-3---3-1-|------0-1-3-1-0-| 
Gb||----0-----------|----0-----------|----2-----------|----0-----------| 
Db||--2-------------|--2-------------|--2-------------|--0-------------| 
Ab||3---------------|2---------------|0---------------|----------------| 
Eb||----------------|----------------|----------------|3---------------| 
 
    E                                 Gb 
eb||----------0-----|----------0-----|--------------3-|----------------| 
Bb||----1---3---3---|----1---3---3---|------0-1-0---0-|----------------| 
Gb||--2---2-------2-|--2---2-------2-|----0-------0-0-|----------------| 
Db||3---------------|3---------------|--0-----------0-|----------------| 
Ab||----------------|----------------|----------------|----------------| 
Eb||----------------|----------------|3---------------|----------------| 
 
 
{Chorus} 
   Left 
eb||----------------|----------------|----------------|----------------| 
Bb||----------------|----------------|----------------|----------------| 
Gb||----------------|----------------|----------------|----------------| 
Db||7---------------|3---------------|5---------------|----------------| 
Ab||7---------------|3---------------|5---------------|7-------5-------| 
Eb||5---------------|1---------------|3---------------|----------------| 
  ||Right                                                              | 
eb||----------------|----------------|----------------|----------------| 
Bb||----------------|----------------|----------------|----------------| 
Gb||----------------|----------------|----------------|----------------| 
Db||7---------------|3---------------|5---------------|----------------| 
Ab||7---------------|3---------------|5---------------|3-------2-------| 
Eb||5---------------|1---------------|3---------------|----------------| 
 
   Both 
eb||----------------|----------------|----------------|----------------| 
Bb||----------------|----------------|----------------|----------------| 
Gb||7---------------|3---------------|5-------------5-|----------------| 
Db||7---------------|3---------------|5-------------5-|3-------5-------| 
Ab||5---------------|1---------------|3-------------3-|3-------5-------| 
Eb||----------------|----------------|----------------|1-------3-------| 
    Repeat once 
 
 
{Pre-verse} 
                           Slide whole position up to Gb 
eb||------------------|----------------|---------0-------|----------------| 
Bb||------0-0h1p0-----|----1---0h1-----|s----3-----3-----|----------------| 
Gb||----2---------2---|--2---2-----2---|s--4---4-----4---|----0-2-0-------| 
Db||--2-------------0-|3-------------3-|s5-------------0-|--2---3-2-3-2-0-| 
Ab||0-----------------|----------------|-----------------|3---------5-3-2-| 
Eb||------------------|----------------|-----------------|----------------| 
    Repeat once 
 
 
{Verse 3} 
 
eb||--------5-------|--------3-------|--------5-------|--------3-------| 
Bb||------5---5---5-|------3---3---3-|------5---5---5-|------3---3---3-| 
Gb||----5-------5---|----4-------4---|----5-------5---|----4-------4---| 
Db||--7-------------|--5-------------|--7-------------|--5-------------| 
Ab||0---------------|0---------------|0---------------|0---------------| 
Eb||----------------|----------------|----------------|----------------| 
  ||                                                                   | 
eb||----------------|--------------8-|----------------|--------------8-| 
Bb||----------------|--------8-s10---|10--------------|--------8-s10---| 
Gb||----------------|----------------|----------------|----------------| 
Db||----------------|----------------|----------------|----------------| 
Ab||----------------|----------------|----------------|----------------| 
Eb||----------------|----------------|----------------|----------------| 
 
eb||--------1-------|--------1-------|--------0-------|--------7-------| 
Bb||----1-----1---1-|----1-----1---1-|------1---1-----|------8---8-----| 
Gb||--2---2-----2---|--2---2-----2---|----2-------2---|----9-------9---| 
Db||3---------------|3---------------|--2-----------0-|--9-----------9-| 
Ab||----------------|----------------|0---------------|7---------------| 
Eb||----------------|----------------|----------------|----------------| 
  ||                                                                   | 
eb||----------------|----------------|----------------|----------------| 
Bb||10--------------|----------------|----------------|------13----12--| 
Gb||----------------|----------------|----------------|------14----12--| 
Db||----------------|----------------|----------------|----------------| 
Ab||----------------|----------------|----------------|----------------| 
Eb||----------------|----------------|----------------|----------------| 
 
 
{Verse 4} 
 
eb||--------5-------|--------3-------|--------5-------|--------3-------| 
Bb||------5---5---5-|------3---3---3-|------5---5---5-|------3---3---3-| 
Gb||----5-------5---|----4-------4---|----5-------5---|----4-------4---| 
Db||--7-------------|--5-------------|--7-------------|--5-------------| 
Ab||0---------------|0---------------|0---------------|0---------------| 
Eb||----------------|----------------|----------------|----------------| 
  ||                                                                   | 
eb||----------------|----------------|----------------|----------------| 
Bb||----------------|----------------|----------------|----------------| 
Gb||----------------|------9--10-9--7|5---------------|-----9h10-9-7-b9| 
Db||----------------|------10-12-10-9|7---------------|----------------| 
Ab||----------------|----------------|----------------|----------------| 
Eb||----------------|----------------|----------------|----------------| 
 
eb||--------1-------|--------1-------|--------0-------|--------7-------| 
Bb||----1-----1---1-|----1-----1---1-|------1---1-----|------8---8-----| 
Gb||--2---2-----2---|--2---2-----2---|----2-------2---|----9-------9---| 
Db||3---------------|3---------------|--2-----------0-|--9-----------9-| 
Ab||----------------|----------------|0---------------|7---------------| 
Eb||----------------|----------------|----------------|----------------| 
  ||                                                                   |Join the bridge... 
eb||----------------|----------------|----------------|----------------|--------| 
Bb||----------------|----------------|----------------|-----15-13----12|12b13---| 
Gb||----------------|----------------|----------------|-----------14---|--------| 
Db||----------------|----------------|----------------|----------------|--------| 
Ab||----------------|----------------|----------------|----------------|--------| 
Eb||----------------|----------------|----------------|----------------|--------| 
 
 
{Solo} 
 
eb||----------------------|----|----|--------------| 
Bb||A.H------create-------|----|----|--------------| 
Gb||11pb12---a-vibrato----|----|----|7b9-r-5-4-5---| 
Db||---------by-releasing-|----|----|------------5-| 
Ab||---------the-bend-and-|----|----|--------------| 
Eb||---------bend-again---|----|----|--------------| 
 
eb||----|----|----|------------|----5--------|------------------|----------------|----------| 
Bb||----|----|----|------------|5-5---8b10---|8pb10-r-6-5---5h6p|5-------------8-|----------| 
Gb||----|----|----|----4---5---|-------------|------------------|--7-5-7-7b9-----|7b9-r-5-4-| 
Db||7---|----|----|7-----------|-------------|------------------|----------------|----------| 
Ab||----|----|----|------------|-------------|------------------|----------------|----------| 
Eb||----|----|----|------------|-------------|------------------|----------------|----------| 
 
eb||----------|--------------|----|---------|-----|----|----|-------------------| 
Bb||----------|--------------|----|---------|-----|----|----|8------------------| 
Gb||4b5-r-----|4b5-r---------|----|4--5--7--|7b9--|7---|----|--7b9-r-5-4--5-----| 
Db||------7---|------7---7s5-|5---|---------|-----|----|----|----------------5--| 
Ab||----------|--------------|----|---------|-----|----|----|-------------------| 
Eb||----------|--------------|----|---------|-----|----|----|-------------------| 
  ||                                                                            | 
eb||----------|--------------|----|---------|-----|----|----|-------------------| 
Bb||----------|--------------|----|3--5--8--|8b10-|----|----|-------------------| 
Gb||7b9-r-5---|7b9-r-5---5s4-|5---|---------|-----|----|----|-------------------| 
Db||----------|--------------|----|---------|-----|----|----|-------------------| 
Ab||----------|--------------|----|---------|-----|----|----|-------------------| 
Eb||----------|--------------|----|---------|-----|----|----|-------------------| 
 
eb||----------|------------|--------------|--------|------| 
Bb||----------|------------|--------------|--------|------| 
Gb||--------4-|4---4-5-7-5-|4-b5-r-b5-r---|5---7---|7b8---| 
Db||7---7-7---|------------|--------------|--------|------| 
Ab||----------|------------|--------------|--------|------| 
Eb||----------|------------|--------------|--------|------| 
 
Guitar 2: Repeat intro riff 2 times then go with the following chord progress: 
Ab5 E5 Gb5 Eb5 
last time replace Eb5 with G5 A5 
 
 
{Chorus} 
 
Same, except in the key of B-minor. 
 
 
||||/\/\/\/\/\/\/\/\/\/\/\/\/\/\/\/\/\/\/\/\/\/\/\/\/\/\/\/\/\/\/\/\/\/\|||| 
||||\/\/\/\/\/\/\/\/\/\/\/\/\/\/\/\/\/\/\/\/\/\/\/\/\/\/\/\/\/\/\/\/\/\/|||| 
 
 
{Intro} 
 
{Verse 1} 
 
I'm feeling this time as bad as never before 
A bleeding wag is fading away 
 
{Verse 2} 
 
Once you needed me for spending delight 
But below this funny mask there's a crying face 
 
{Bridge} 
 
The way that I smile is the way that I cry 
But you'll never realize 
My reputation is the one of a fool 
Now watch how a poet dies, hear his cries 
 
{Chorus} 
 
And I dedicate my roses to no one 
Cause there is no mind to help me to see 
The reason we need, a light for the lonesome 
And noone to drink the blood that I bleed 
 
{Pre-verse} 
 
{Verse 3} 
 
The poet inside wasn't given a chance 
so he had to live apart 
 
{Verse 4} 
 
And I realized my best friend am I 
and not those parasites who try to stare into my heart 
 
{Bridge} 
 
The way that I feel is the way that I heal 
My body and soul and my life 
And I know you just think I'm a fool 
Now watch how a poet flies, see him rise 
 
{Chorus} 
 
{Solo} 
 
{Chorus} 
 
{Repeat and fade out} 
 
2000-06-29 
 

    	
fixar
fixar inscrever-se

enviado porenviado por: eduardo_lyvio
cifra enviadaCorrigida por: sem correções
logo top cifrasComente
ico música do artistaMúsicas deste artista
ico curtiuCurtiu?
ico destaqueDestaque
Petaxxon Comunicação Online

Cifras.com.br - Melhor e mais completo site de cifras e tablaturas do Brasil Mais de 1 milhão de acordes de músicas cadastradas desde 2003
As informações contidas no nosso site são colaborações de seus usuários e podem conter erros, sendo assim, não nos responsabilizamos sobre nenhuma destas.

close
menos
mais
close
Cor dos acordes:

Cor da letra:

close
Alinhar acordes a direita Alinhar acordes a esquerda Alinhar acordes em baixo Alinhar acordes no topo
close
  Mostrar todos os acordes Esconder acordes muito fáceis Esconder acordes fáceis Esconder acordes intermediários
redimensionar
glossário