Cifras e Tablaturas
Eli Soares

Eli Soares

Eu Sou

Cifras Cancelar Versão de Impressão
cifras

Eli Soares - Eu Sou

fixar na tela  
Exibindo: vídeo-aula ver clipes redimensionar

Tom:

Bm

ver outros tons
  
E|------------------------------------| 
B|------------------------------------| 
G|--------------------9-7-------------| 3x 
D|---9-7------------------9---7h9-7h9-| 
A|-------9----7h9---7-------9---------| 
E|-7-------10-------------------------| 


Riff 2: 

E|-----------------------------------------------| 
B|-----------------------------------------------| 
G|------------------/11-11-9-------/11-11-9------| 
D|---9-7---------------------12-9-----------12-9-| 
A|-------9----7h9--------------------------------| 
E|-7-------10------------------------------------| 


Primeira Parte: 


      Bm7(9)   Bm7/A 
E|---9--------7--| 
B|---7--------7--| 
G|---7--------7--| 
D|---7--------7--| 
A|---x--------x--| 
E|---x--------x--| 


Repete Riff 1 
Riff 3: 

E|-------------------------------------------9-9----------| 
B|------------------------------10-10-9----------12-10----| 
G|----------------/11-11-9--------------11-9-----------11-| 
D|---9-7-------------------12-9---------------------------| 
A|-------9----7h9-----------------------------------------| 
E|-7-------10---------------------------------------------| 
  

cifra enviadasem correções
enviado porenviada por:edsooliveira
top 5 | eli soares
top gospel
Outras músicas do artista letras do(a) Eli Soares
Top cifras »Top artistas »
Petaxxon Comunicação Online
Cifras.com.br - Melhor e mais completo site de cifras e tablaturas do Brasil
Mais de 1 milhão de acordes de músicas cadastradas desde 2003
As informações contidas no nosso site são colaborações de seus usuários e podem conter erros, sendo assim, não nos responsabilizamos sobre nenhuma destas.
close
menos
mais
close
Cor dos acordes:

Cor da letra:

 

save
close
close
 
redimensionar