Cifras e Tablaturas
Elin Sigvardsson

Elin Sigvardsson

When It Comes To You

Cifras Cancelar Versão de Impressão
cifras

Elin Sigvardsson - When It Comes To You

fixar na tela  
Exibindo: vídeo-aula ver clipes redimensionar
  
Capo 5 

  Intro 
e|-----2-------0-------0-------2-------0-------0--| 
B|-------3-------3---3-----------3-------3---3----| 
G|---2-----2-------2---------2-----2-------2------| 
D|-0----------------------------------------------| 
A|-------------------------0----------------------| 
E|-------------3-----------------------3----------| 

  Verse 
e|-----2------------------------------------------| 
B|-------3-----------3-----------3-----------3----| 
G|---2-----2-------2---2-------2---2-------2---2--| 
D|-0-------------0-----------0-----------0--------| 
A|-------------------------0----------------------| 
E|-------------3-----------------------3----------| 

e|-----2-------------------------5----------------| 
B|-------3-----------3-------------3---------3----| 
G|---2-----2-------2---2-------2-----------2---2--| 
D|-0-------------0-----------0-----------0--------| 
A|-------------------------0----------------------| 
E|-------------3-----------------------3----------| 

  Pre-Chorus 
e|----------------------------------------------------| 
B|--------3------------3------------3------------3----| 
G|------2---2--------2---2--------2---2--------2---2--| 
D|----0------------0---------0--0------------0--------| 
A|-2--------------------------------------0-----------| 
E|--------------3-------------------------------------|   x2 

e|--------------------------------2-------------------| 
B|--------3------------3------------3------------3----| 
G|------2---2--------2---2------------2--------2---2--| 
D|----0------------0---------0--0------------0--------| 
A|-2--------------------------------------0-----------| 
E|--------------3-------------------------------------| 

e|----------------------------------------0---| 
B|--------3------------3------------3-----3---| 
G|------2---2--------2---2--------2---2---2---| 
D|----0------------0------------0---------0---| 
A|-2-------------------------0----------------| 
E|--------------3-------------------------3---| 

  Chorus 
   G   C   Em  Dadd4 
e|-2---3---2---0--| 
B|-3---3---3---3--| 
G|-2---0---4---2--| 
D|-0---0---4---2--| 
A|-----2---2---0--| 
E|-----3----------| 

   G Fadd9/E C   C 
e|-2---3-----3---3--| 
B|-3---3-----3---3--| 
G|-2---0-----0---0--| 
D|-0---2-----0---0--| 
A|-----2-----2---2--| 
E|-----------3---3--| 

  Sticket innan  verse 2 och munspelssolot 
  "When it comes to you... When it comes to you..." 
   G   C Dadd4 C   G Dadd4 C   C 
e|-2---3---0---3-|-2---0---3---3--| 
B|-3---3---3---3-|-3---3---3---3--| 
G|-2---0---2---0-|-2---2---0---0--| 
D|-0---0---2---0-|-0---2---0---0--| 
A|-----2---0---2-|-----0---2---2--| 
E|-----3-------3-|---------3---3--| 
(Denna ackordföljd avslutar även låten efter sista refrängen) 

  Komp under munspelssolo 
   G   C  Em Dadd4 Em Dadd4 C Dadd4 Em Dadd4 C Dadd4 Em Dadd4 C  C 
e|-2---3---2---0-|-2---0----3---0-|-2---0---3---0-|--2---0---3--(3)-| 
B|-3---3---3---3-|-3---3----3---3-|-3---3---3---3-|--3---3---3--(3)-| 
G|-2---0---4---2-|-4---2----0---2-|-4---2---0---2-|--4---2---0--(0)-| 
D|-0---0---4---2-|-4---2----0---2-|-4---2---0---2-|--4---2---0--(0)-| 
A|-----2---2---0-|-2---0----2---0-|-2---0---2---0-|--2---0---2--(2)-| 
E|-----3---------|----------3-----|---------3-----|----------3--(3)-| 


************************************ 

| (n)  Ghost note 

************************************  
  

cifra enviadasem correções
enviado porenviada por:abelamin
top 5 | elin sigvardsson
top rock'n roll
Outras músicas do artista letras do(a) Elin Sigvardsson
Top cifras »Top artistas »
Petaxxon Comunicação Online
Cifras.com.br - Melhor e mais completo site de cifras e tablaturas do Brasil
Mais de 1 milhão de acordes de músicas cadastradas desde 2003
As informações contidas no nosso site são colaborações de seus usuários e podem conter erros, sendo assim, não nos responsabilizamos sobre nenhuma destas.
close
menos
mais
close
Cor dos acordes:

Cor da letra:

 

save
close
close
 
redimensionar