Cifras e Tablaturas
Elliott Smith

Elliott Smith

Pitseleh

Ano: 1998
Album : XO

Cifras Cancelar Versão de Impressão Print

Elliott Smith - Pitseleh

Tom: D

  			This is the intro and rest of the tabs to my favorite artist Elliott smith, song: Pitseleh 
 
 
( strum the 2&3 fast, if you cant do it 4 start with 2 strums and make your way up) 
 
|---2-2-2-2---2-2-2-2---2-2-2-2---2-2-2-2-| 
|---3-3-3-3---3-3-3-3---3-3-3-3---3-3-3-3-| 
|-----------------------------------------| 
|-----------------------------------------| 
|-----------------------------------------| 
|-0---------0---------2---------2---------|  
          ^        
(Go on like this) till He says I've Got a joke ive been dying to tell you , on joke do this 
 
|---2-2-2-2---2-2-2-2---2-2-2-2---2-2-2-2---2-2-2-2---2-2-2-2-| 
|---3-3-3-3---3-3-3-3---3-3-3-3---3-3-3-3---3-3-3-3---3-3-3-3-| 
|-------------------------------------------------------------| 
|-------------------------------------------------------------| 
|-0---------0-------------------------------------------------| 
|---------------------2---------2---------3---------3---------| 
 
then continue with the first part 
 
|---2-2-2-2---2-2-2-2---2-2-2-2---2-2-2-2--| 
|---3-3-3-3---3-3-3-3---3-3-3-3---3-3-3-3--| 
|------------------------------------------| 
|------------------------------------------| 
|------------------------------------------| 
|-0---------0---------2---------2----------| 
 
|---2-2-2-2---2-2-2-2---2-2-2-2---2-2-2-2---2-2-2-2---2-2-2-2-| 
|---3-3-3-3---3-3-3-3---3-3-3-3---3-3-3-3---3-3-3-3---3-3-3-3-| 
|-------------------------------------------------------------| 
|-------------------------------------------------------------| 
|-0---------0-------------------------------------------------| 
|---------------------2---------2---------3---------3---------| 
 
then when he says kept  it from you pitseleh do this. 
 
|---2-2-2-2---2-2-2-2---2-2-2-2---2-2-2-2-| 
|---3-3-3-3---3-3-3-3---3-3-3-3---3-3-3-3-| 
|-----------------------------------------| 
|-----------------------------------------| 
|---------------------0---------0---------| 
|-0---------0-----------------------------| 
then this is the bridge to the next verse 
 
|---2-2-2-2---2-2-2-2---2-2-2-2---2-2-2-2----2-2-2-2| 
|---3-3-3-3---3-3-3-3---3-3-3-3---3-3-3-3----3-3-3-3| 
|---------------------------------------------------| 
|-0---------------------------------------20--------| 
|-----------2---------0---------0-------------------| 
|---------------------------------------------------| 
 
|---2-2-2-2---2-2-2-2---2-2-2-2---2-2-2-2-| 
|---3-3-3-3---3-3-3-3---3-3-3-3---3-3-3-3-| 
|-----------------------------------------| 
|-----------------------------------------| 
|-----------------------------------------| 
|-0---------0---------2---------2---------| 
 
|---2-2-2-2---2-2-2-2---2-2-2-2---2-2-2-2---2-2-2-2---2-2-2-2-| 
|---3-3-3-3---3-3-3-3---3-3-3-3---3-3-3-3---3-3-3-3---3-3-3-3-| 
|-------------------------------------------------------------| 
|-------------------------------------------------------------| 
|-0---------0-------------------------------------------------| 
|---------------------2---------2---------3---------3---------| 
 
 
 
                                                 
|---2-2-2-2---2-2-2-2---2-2-2-2---2-2-2-2------2-2-2-2| 
|---3-3-3-3---3-3-3-3---3-3-3-3---3-3-3-3------3-3-3-3| 
|-----------------------------------------------------| 
|-0----------------------------------------20---------| 
|-----------2---------0---------0---------------------| 
|-----------------------------------------------------| 
 
 
on the part were he says  No one deserves this play? 
 
|---2-2-2-2---2-2-2-2---2-2-2-2---2-2-2-2--| 
|---3-3-3-3---3-3-3-3---3-3-3-3---3-3-3-3--| 
|------------------------------------------| 
|------------------------------------------| 
|------------------------------------------| 
|-2---------2---------3---------3----------| 
 
 
 
then the piano part? 
 
|---2-2-2-2---2-2-2-2---2-2-2-2---2-2-2-2-| 
|---3-3-3-3---3-3-3-3---3-3-3-3---3-3-3-3-| 
|-----------------------------------------| 
|-----------------------------------------| 
|-----------------------------------------| 
|-0---------0---------2---------2---------| 
 
|---2-2-2-2---2-2-2-2---2-2-2-2---2-2-2-2---2-2-2-2---2-2-2-2-| 
|---3-3-3-3---3-3-3-3---3-3-3-3---3-3-3-3---3-3-3-3---3-3-3-3-| 
|-------------------------------------------------------------| 
|-------------------------------------------------------------| 
|-0---------0-------------------------------------------------| 
|---------------------2---------2---------3---------3---------| 
 
keep playing and at the end of each tab strum hard with the 
 
|-2-2-2-2-| 
|-3-3-3-3-| 
 
after piano part play this again 
 
|---2-2-2-2---2-2-2-2---2-2-2-2---2-2-2-2--| 
|---3-3-3-3---3-3-3-3---3-3-3-3---3-3-3-3--| 
|------------------------------------------| 
|------------------------------------------| 
|------------------------------------------| 
|-0---------0---------2---------2----------| 
 
|---2-2-2-2---2-2-2-2---2-2-2-2---2-2-2-2---2-2-2-2---2-2-2-2-| 
|---3-3-3-3---3-3-3-3---3-3-3-3---3-3-3-3---3-3-3-3---3-3-3-3-| 
|-------------------------------------------------------------| 
|-------------------------------------------------------------| 
|-0---------0-------------------------------------------------| 
|---------------------2---------2---------3---------3---------| 
 
|---2-2-2-2---2-2-2-2---2-2-2-2---2-2-2-2-| 
|---3-3-3-3---3-3-3-3---3-3-3-3---3-3-3-3-| 
|-----------------------------------------| 
|-----------------------------------------| 
|---------------------0---------0---------| 
|-0---------0-----------------------------| 
 
 
 
|---2-2-2-2---2-2-2-2---2-2-2-2---2-2-2-2----2-2-2-2| 
|---3-3-3-3---3-3-3-3---3-3-3-3---3-3-3-3----3-3-3-3| 
|---------------------------------------------------| 
|-0---------------------------------------20--------| 
|-----------2---------0---------0-------------------| 
|---------------------------------------------------| 
 
 
when its over strum D chord once 
 
 
lyrics: 
i'll tell you why i don't want to know where you are 
i got a joke i been dying to tell you 
a silent kid is looking down the barrel 
to make the noise that i kept so quiet 
i kept it from you, pitseleh 
i'm not what's missing from your life now 
i could never be the puzzle pieces 
they say that god makes problems  
just to see what you can stand 
before you do as the devil pleases 
and give up the thing you love 
but no one deserves it 
the first time i saw you i knew it would never last 
i'm not half what i wish i was 
i'm so angry 
i don't think it'll ever pass 
and i was bad news for you just because  
i never meant to hurt you 
 
 
i recommend you listen to the song first. 
 
by- SUPER GROVER (mike) I LOVE ROCIO 
 
 
 

    	
fixar
fixar inscrever-se

enviado porenviado por: super grover
cifra enviadaCorrigida por: sem correções
logo top cifrasComente
ico música do artistaMúsicas deste artista
ico curtiuCurtiu?
ico destaqueDestaque
Petaxxon Comunicação Online

Cifras.com.br - Melhor e mais completo site de cifras e tablaturas do Brasil Mais de 1 milhão de acordes de músicas cadastradas desde 2003
As informações contidas no nosso site são colaborações de seus usuários e podem conter erros, sendo assim, não nos responsabilizamos sobre nenhuma destas.

close
menos
mais
close
Cor dos acordes:

Cor da letra:

close
Alinhar acordes a direita Alinhar acordes a esquerda Alinhar acordes em baixo Alinhar acordes no topo
close
  Mostrar todos os acordes Esconder acordes muito fáceis Esconder acordes fáceis Esconder acordes intermediários
redimensionar
glossário