Cifras e Tablaturas
Eminem

Eminem

Sing For The Moment (solo)

Cifras Cancelar Versão de Impressão Print

Eminem - Sing For The Moment (solo)

Tom: Em

  • 0:00 / 0:00
  			Eminem _ Sing For The Moment 
Solo: 
 
 
Base: (Em  D  C  D    Em  F#m  G  A) 2x 
 
(toque em power-chord para ficar mais parecido com a original) 
 
 
 
 
___________________________________________________________________________ 
 
 
 
e|------------------------------------------------------------------------------------| 
B|-----------------------------------------------------17-----------------------------| 
G|-14-16b-16b--14-16b-16b--14----14----16b-16b-14--16b----16b----16-14-16-16b-14------| 
D|----------------------------16------------------------------------------------------| 
A|------------------------------------------------------------------------------------| 
E|------------------------------------------------------------------------------------| 
 
e|-----------------17-----------------------------------------------------------------| 
B|-17b-17r-15--17b----17b--15-17b-r--15-17b-r--15-17b-r--15-17b-r--------------17-----| 
G|-----------------------------------------------------------------16b-14--16b----16b-| 
D|------------------------------------------------------------------------------------| 
A|------------------------------------------------------------------------------------| 
E|------------------------------------------------------------------------------------| 
 
e|------------------------------------------------------------------------------------| 
B|------------------------------------------------------17----------------------------| 
G|-17b-r----17b-7--14------------16b-16b--14-14-14--16b----16b----16-16-16--14-16-14--| 
D|---------------------16-14-16-------------------------------------------------------| 
A|------------------------------------------------------------------------------------| 
E|------------------------------------------------------------------------------------| 
 
e|------------------------------------------------------------------------------------| 
B|------------------------------------------------------------------------------------| 
G|-14-16b-16b--14-16b-16b--14-16b-16b--14-16b-16b-------------------------------------| 
D|------------------------------------------------------------------------------------| 
A|------------------------------------------------------------------------------------| 
E|------------------------------------------------------------------------------------| 
 
 
___________________________________________________________________________ 
 
 
 
 
(este solo é muito rápido, portanto se você dedilhar esta escala  
acompanhando a música, já fica bem parecido) : 
 
Escala: 
 
e|-------------------14-17-| 
B|-------------14-17-------| 
G|-------14-16-------------| 
D|-14-16-------------------| 
A|-------------------------| 
E|-------------------------| 
 
 
 
 
 
___________________________________________________________________________ 
qualquer dúvida, meu e-mail é "[email protected]" 
 
 
 
 

    	

enviado porenviado por: peretto
cifra enviadaCorrigida por: sem correções
logo top cifrasComente
ico música do artistaMúsicas deste artista
ico curtiuCurtiu?
ico destaqueDestaque
Petaxxon Comunicação Online

Cifras.com.br - Melhor e mais completo site de cifras e tablaturas do Brasil Mais de 1 milhão de acordes de músicas cadastradas desde 2003
As informações contidas no nosso site são colaborações de seus usuários e podem conter erros, sendo assim, não nos responsabilizamos sobre nenhuma destas.

close
menos
mais
close
Cor dos acordes:

Cor da letra:

close
Alinhar acordes a direita Alinhar acordes a esquerda Alinhar acordes em baixo Alinhar acordes no topo
close
  Mostrar todos os acordes Esconder acordes muito fáceis Esconder acordes fáceis Esconder acordes intermediários
redimensionar
glossário