Cifras e Tablaturas
Enrico Nigiotti

Enrico Nigiotti

Lamore È

Cifras Cancelar Versão de Impressão
cifras

Enrico Nigiotti - Lamore È

fixar na tela  
Exibindo: vídeo-aula ver clipes redimensionar
  Main Riff 
    G                       
e|---------------------------------------------------------------------------| 
B|3------------3------------0-------------0-------------------------------------| 
G|------0-------------0-------------0---------------0---------------------------| 
D|----0-----------0-------------2--------------2---------------------------------| 
A|---------------------------------------------------------------------------| 
E|3--------3----------------3----------3-----------------------------------------| 
    Em 
e|---------------------------------------------------------------------------| 
B|3---------3------0---------0---------------------------------------------------| 
G|-----0--------0---------0--------0---------------------------------------------| 
D|---2--------2--------2--------2------------------------------------------------| 
A|---------------------------------------------------------------------------| 
E|0-------0--------0---------0---------------------------------------------------| 
    C 
e|---------------------------------------------------------------------------| 
B|3----------3----------0-----------0--------------------------------------------| 
G|------0-----------0---------0-----------0--------------------------------------| 
D|---2-----------2---------2-----------2-----------------------------------------| 
A|3--------3------------3--------3-----------------------------------------------| 
E|---------------------------------------------------------------------------| 
  D 
e|---------------------------------------------------------------------------| 
B|3--------3---------3p0------------0----------------------------------------------| 
G|----0----------0-----------0------------0--------------------------------------| 
D|--4---------4-----------4------------4-----------------------------------------| 
A|5------5-----------5-----------5-----------------------------------------------| 
E|---------------------------------------------------------------------------| 



************************************ 

| p  Pull-off 
  

************************************ 
  

cifra enviadasem correções
enviado porenviada por:lucicamargo
top 5 | enrico nigiotti
top rock'n roll
Outras músicas do artista letras do(a) Enrico Nigiotti
Top cifras »Top artistas »
Petaxxon Comunicação Online
Cifras.com.br - Melhor e mais completo site de cifras e tablaturas do Brasil
Mais de 1 milhão de acordes de músicas cadastradas desde 2003
As informações contidas no nosso site são colaborações de seus usuários e podem conter erros, sendo assim, não nos responsabilizamos sobre nenhuma destas.
close
menos
mais
close
Cor dos acordes:

Cor da letra:

 

save
close
close
 
redimensionar