Cifras e Tablaturas
Enter Shikari

Enter Shikari

Rabble Rouser

Cifras Cancelar Versão de Impressão
cifras

Enter Shikari - Rabble Rouser

fixar na tela  
Exibindo: vídeo-aula ver clipes redimensionar

Tom:

  
Intro 
e|---------------------------------------------------------------------------------------------| 
B|---------------------------------------------------------------------------------------------| 
G|---------------------------------------------------------------------------------------------|    (x2) 
D|---------------------------------------------------------------------------------------------| 
A|---------------------------------------------------------------------------------------------| 
C|-4-----4--4--4--5--4--3-----3--3-3-0-3-4-----4--4--4--5--4--3-----11----15\------------------| 

verse 1 
(0:28 - 0:44) 
(Gtr 1) 
e|--------------------------------------------------------------------------------------------------| 
B|--------------------------------------------------------------------------------------------------| 
G|--------------------------------------------------------------------------------------------------|         
D|----9----------------9---9----10----10----9----8------------5-----------5--0--5-------------------| 
A|----7-7-7-7-7-7-7----7---7-----8-----8----7----6-6-6-6-6----3-3-3-3-3---3--0--3-------------------| 
C|--------------------------------------------------------------------------------------------------| 

(Gtr 2) 
e|--------------------------------------------------------------------------------------------| 
B|--------------------------------------------------------------------------------------------| 
G|--------------------------------------------------------------------------------------------|    
D|---2----------------------------------------------------------------------------------------| 
A|---2----------------------------------------------------------------------------------------| 
C|--------------------------------------------------------------------------------------------| 

verse 2 
(0:56 - 1:10) 
e|--------------------------------------------------------------------------------------| 
B|--------------------------------------------------------------------------------------| 
G|-----2/9-------2/9--------2/9---------2/9---------------------------------------------| 
D|--------------------------------------------------------------------------------------| 
A|--------------------------------------------------------------------------------------| 
C|--------------------------------------------------------------------------------------| 

Chorus 
(1:11 - 1:36)                                          (1:36 - 1:38) 
e|----7---------8-------5-------7--------5--------------11--11--11--11--11--11-----------------------------| 
B|----x---------x-------x-------x--------x--------------x---x---x---x---x---x------------------------------| 
G|----4-------- 5-------2-------4--------2--------------8---8---8---8---8---8------------------------------| 
D|---------------------------------------------------------------------------------------------------------| 
A|---------------------------------------------------------------------------------------------------------| 
C|---------------------------------------------------------------------------------------------------------| 


************************************ 

| \  Slide down 
| /  Slide up 
| x  Dead note 


************************************ 
  

top 5 | enter shikari
top rock alternativo
Outras músicas do artista letras do(a) Enter Shikari
Top cifras »Top artistas »
Petaxxon Comunicação Online
Cifras.com.br - Melhor e mais completo site de cifras e tablaturas do Brasil
Mais de 1 milhão de acordes de músicas cadastradas desde 2003
As informações contidas no nosso site são colaborações de seus usuários e podem conter erros, sendo assim, não nos responsabilizamos sobre nenhuma destas.
close
menos
mais
close
Cor dos acordes:

Cor da letra:

 

save
close
close
 
redimensionar